  0
SECTION
  2
HEADER
  9
$ACADVER
  1
AC1004
  9
$INSBASE
 10
0.0
 20
0.0
  9
$EXTMIN
 10
0.0
 20
-754.024442280391
  9
$EXTMAX
 10
394.304933283483
 20
-464.13189821327
  9
$LIMMIN
 10
0.0
 20
0.0
  9
$LIMMAX
 10
420.0
 20
297.0
  9
$ORTHOMODE
 70
     1
  9
$REGENMODE
 70
     1
  9
$FILLMODE
 70
     1
  9
$QTEXTMODE
 70
     0
  9
$DRAGMODE
 70
     2
  9
$LTSCALE
 40
1.0
  9
$OSMODE
 70
  1719
  9
$ATTMODE
 70
     1
  9
$TEXTSIZE
 40
1.0
  9
$TRACEWID
 40
1.0
  9
$TEXTSTYLE
  7
STANDARD
  9
$CLAYER
  8
SAISEN
  9
$CELTYPE
  6
BYLAYER
  9
$CECOLOR
 62
     1
  9
$DIMSCALE
 40
0.0
  9
$DIMASZ
 40
2.5
  9
$DIMEXO
 40
2.0
  9
$DIMDLI
 40
10.0
  9
$DIMRND
 40
0.0
  9
$DIMDLE
 40
0.0
  9
$DIMEXE
 40
1.25
  9
$DIMTP
 40
0.0
  9
$DIMTM
 40
0.000000001
  9
$DIMTXT
 40
2.5
  9
$DIMCEN
 40
-0.5
  9
$DIMTSZ
 40
0.0
  9
$DIMTOL
 70
     0
  9
$DIMLIM
 70
     0
  9
$DIMTIH
 70
     0
  9
$DIMTOH
 70
     0
  9
$DIMSE1
 70
     0
  9
$DIMSE2
 70
     0
  9
$DIMTAD
 70
     3
  9
$DIMZIN
 70
     8
  9
$DIMBLK
  1

  9
$DIMASO
 70
     1
  9
$DIMSHO
 70
     1
  9
$DIMPOST
  1

  9
$DIMAPOST
  1

  9
$DIMALT
 70
     0
  9
$DIMALTD
 70
     4
  9
$DIMALTF
 40
0.0394
  9
$DIMLFAC
 40
1.0
  9
$DIMTOFL
 70
     1
  9
$DIMTVP
 40
0.0
  9
$DIMTIX
 70
     0
  9
$DIMSOXD
 70
     0
  9
$DIMSAH
 70
     0
  9
$DIMBLK1
  1

  9
$DIMBLK2
  1

  9
$LUNITS
 70
     2
  9
$LUPREC
 70
     4
  9
$SKETCHINC
 40
1.0
  9
$FILLETRAD
 40
10.0
  9
$AUNITS
 70
     0
  9
$AUPREC
 70
     0
  9
$MENU
  1
acad
  9
$ELEVATION
 40
0.0
  9
$THICKNESS
 40
0.0
  9
$LIMCHECK
 70
     0
  9
$CHAMFERA
 40
10.0
  9
$CHAMFERB
 40
10.0
  9
$SKPOLY
 70
     0
  9
$TDCREATE
 40
2453649.555039063
  9
$TDUPDATE
 40
2459748.47664338
  9
$TDINDWG
 40
3.3649722569
  9
$TDUSRTIMER
 40
3.3649722569
  9
$USRTIMER
 70
     1
  9
$ANGBASE
 50
0.0
  9
$ANGDIR
 70
     0
  9
$PDMODE
 70
     0
  9
$PDSIZE
 40
0.0
  9
$PLINEWID
 40
0.0
  9
$COORDS
 70
     1
  9
$SPLFRAME
 70
     0
  9
$SPLINETYPE
 70
     6
  9
$SPLINESEGS
 70
     8
  9
$ATTDIA
 70
     0
  9
$ATTREQ
 70
     1
  9
$SURFTAB1
 70
     6
  9
$SURFTAB2
 70
     6
  9
$SURFTYPE
 70
     6
  9
$SURFU
 70
     6
  9
$SURFV
 70
     6
  9
$UCSNAME
  2

  9
$UCSORG
 10
0.0
 20
0.0
 30
0.0
  9
$UCSXDIR
 10
1.0
 20
0.0
 30
0.0
  9
$UCSYDIR
 10
0.0
 20
1.0
 30
0.0
  9
$USERI1
 70
     0
  9
$USERI2
 70
     0
  9
$USERI3
 70
     0
  9
$USERI4
 70
     0
  9
$USERI5
 70
     0
  9
$USERR1
 40
0.0
  9
$USERR2
 40
0.0
  9
$USERR3
 40
0.0
  9
$USERR4
 40
0.0
  9
$USERR5
 40
0.0
  9
$WORLDVIEW
 70
     1
  0
ENDSEC
  0
SECTION
  2
TABLES
  0
TABLE
  2
LTYPE
 70
     2
  0
LTYPE
  2
CONTINUOUS
 70
     0
  3
Solid line
 72
    65
 73
     0
 40
0.0
  0
LTYPE
  2
DASHED2
 70
     0
  3
Dashed (.5x) _ _ _ _ _ _ _ _ _ _ _ _ _ _ _ _ _
 72
    65
 73
     2
 40
9.525
 49
6.35
 49
-3.175
  0
ENDTAB
  0
TABLE
  2
LAYER
 70
    13
  0
LAYER
  2
0
 70
     0
 62
     7
  6
CONTINUOUS
  0
LAYER
  2
MOJI
 70
     0
 62
     7
  6
CONTINUOUS
  0
LAYER
  2
SAISEN
 70
     0
 62
     7
  6
CONTINUOUS
  0
LAYER
  2
DEFPOINTS
 70
     0
 62
     7
  6
CONTINUOUS
  0
LAYER
  2
WAKU3
 70
     0
 62
     1
  6
CONTINUOUS
  0
LAYER
  2
WAKU2
 70
     0
 62
     7
  6
CONTINUOUS
  0
LAYER
  2
罫線
 70
     0
 62
     7
  6
CONTINUOUS
  0
LAYER
  2
SOUZOUSEN
 70
     0
 62
   161
  6
CONTINUOUS
  0
LAYER
  2
PT
 70
     0
 62
     4
  6
CONTINUOUS
  0
LAYER
  2
SUNPOUSEN
 70
     0
 62
     6
  6
CONTINUOUS
  0
LAYER
  2
SAKUZU1
 70
     0
 62
     7
  6
CONTINUOUS
  0
LAYER
  2
説明文
 70
     0
 62
     7
  6
CONTINUOUS
  0
LAYER
  2
HATCH
 70
     0
 62
     7
  6
CONTINUOUS
  0
ENDTAB
  0
TABLE
  2
STYLE
 70
     5
  0
STYLE
  2
STANDARD
 70
     0
 40
0.0
 41
1.0
 50
0.0
 71
     0
 42
1.0
  3
txt.shx
  4
KELF1-K.shx
  0
STYLE
  2
MSMINTYOU1
 70
     0
 40
0.0
 41
1.0
 50
0.0
 71
     0
 42
3.5
  3
C:\WINDOWS\FONTS\msminch1.TTF
  4

  0
STYLE
  2
スタイル2
 70
     0
 40
0.0
 41
1.0
 50
0.0
 71
     0
 42
2.5
  3
txt.shx
  4
extfont.shx
  0
STYLE
  2
太ゴシック
 70
     0
 40
0.0
 41
1.0
 50
0.0
 71
     0
 42
0.2
  3
DFHsg7_2.ttc
  4

  0
STYLE
  2
ＭＳゴシック
 70
     0
 40
0.0
 41
1.0
 50
0.0
 71
     0
 42
1.0
  3
msgothic.ttc
  4

  0
ENDTAB
  0
TABLE
  2
VIEW
 70
     0
  0
ENDTAB
  0
ENDSEC
  0
SECTION
  2
BLOCKS
  0
BLOCK
  8
0
  2
*X0
 70
     1
 10
0.0
 20
0.0
  0
TEXT
  8
説明文
  6
CONTINUOUS
 10
268.930046576301
 20
-648.393805573743
 40
2.5
  1
利用者などの安全を確保する対策として、警告･注意喚起を促す三角ステッカー、
 41
0.9
  0
TEXT
  8
説明文
  6
CONTINUOUS
 10
269.002627221462
 20
-651.727138907077
 40
2.5
  1
戸袋注意シールなどの貼付けが推進されておりますので
 41
0.9
  0
TEXT
  8
説明文
  6
CONTINUOUS
 10
327.792949802107
 20
-651.727138907077
 40
2.5
  1
、
 41
0.6
  0
TEXT
  8
説明文
  6
CONTINUOUS
 10
329.360691737591
 20
-651.727138907077
 40
2.5
  1
取付けすることを推奨します
 41
0.9
  0
ENDBLK
  8
0
  0
ENDSEC
  0
SECTION
  2
ENTITIES
  0
TEXT
  8
SAISEN
 10
112.623407645002
 20
173.821476902091
 40
2.5
  1

  0
TEXT
  8
SAISEN
 62
     7
 10
254.475311100878
 20
-493.296899481917
 40
2.5
  1
ＢＤ
  0
LINE
  8
罫線
 62
     7
 10
5.0
 20
-483.062772509639
 11
5.0
 21
-678.762772509641
  0
TEXT
  8
SAISEN
 62
     7
 10
12.207298485405
 20
-481.245214926255
 40
4.0
  1
内蔵式（ＥＢ、ＨＢ、ＢＡ、ＮＢ、ＣＦ）規格無目材納り図、縦枠加工図
  0
TEXT
  8
SAISEN
 10
5.145707112139
 20
-482.168489242461
 40
5.0
  1
Ａ
  0
TEXT
  8
SAISEN
 62
     7
 10
213.211316399242
 20
-481.231598518091
 40
4.0
  1
その他（ＢＤ、ＢＩ、ＣＮ、ＢＷ、ＦＣ、ＦＤ、ＤＲ）の各機種基本納り図
  0
TEXT
  8
SAISEN
 10
68.73700242231
 20
-474.037798414615
 40
4.8
  1
目              　　  　　　次
  7
太ゴシック
  0
LINE
  8
罫線
 62
     7
 10
388.856152293552
 20
-483.062772509639
 11
205.856152293552
 21
-483.062772509639
  0
LINE
  8
罫線
 62
     7
 10
388.856152293552
 20
-490.062772509639
 11
205.856152293552
 21
-490.062772509639
  0
TEXT
  8
SAISEN
 62
     7
 10
21.840617092348
 20
-488.035117736763
 40
3.0
  1
図   面   名
 41
1.3
  0
TEXT
  8
SAISEN
 62
     7
 10
161.070925196112
 20
-488.830769906234
 40
1.5
  1
(バージョン)
  0
TEXT
  8
SAISEN
 62
     7
 10
93.003964930704
 20
-487.701060182049
 40
3.0
  1
内                    容
  0
TEXT
  8
SAISEN
 62
     7
 10
175.089142336663
 20
-487.938317533191
 40
3.0
  1
図  番
  0
TEXT
  8
SAISEN
 62
     7
 10
162.491565474668
 20
-486.50803863154
 40
2.5
  1
Ver
  0
LINE
  8
SAISEN
 62
     7
 10
388.856152293552
 20
-493.762772509639
 11
205.856152293552
 21
-493.762772509639
  0
TEXT
  8
SAISEN
 62
     7
 10
7.5
 20
-493.286657564904
 40
2.5
  1
アルミサッシ組立参考図(立体図)
  0
LINE
  8
罫線
 62
     7
 10
4.99817944215
 20
-689.6280431147
 11
4.99817944215
 21
-744.7280431147
  0
LINE
  8
罫線
 62
     7
 10
4.99817944215
 20
-689.6280431147
 11
187.99817944215
 21
-689.6280431147
  0
TEXT
  8
SAISEN
 62
     7
 10
11.994795785155
 20
-687.771477424388
 40
4.0
  1
後付式（ＢＣ、ＤＣ、ＣＣ、ＢＥ、ＢＧ）基本納り図
  0
TEXT
  8
SAISEN
 10
4.223778899297
 20
-688.510888083018
 40
5.0
  1
Ｂ
  0
LINE
  8
罫線
 62
     7
 10
4.99817944215
 20
-729.089712885452
 11
4.99817944215
 21
-732.6280431147
  0
TEXT
  8
SAISEN
 62
     7
 10
173.818059312699
 20
-493.355924694468
 40
2.5
  1
A - 
  0
TEXT
  8
SAISEN
 62
     7
 10
69.597167740462
 20
-493.300679463951
 40
2.5
  1
規格アルミサッシ組立参考例
  0
TEXT
  8
SAISEN
 62
     7
 10
165.476646151034
 20
-493.159996585847
 40
2.5
  1
4
  0
TEXT
  8
SAISEN
 62
     7
 10
184.459474320721
 20
-493.355924694468
 40
2.5
  1
1
 41
0.9
  0
LINE
  8
SAISEN
 62
     7
 10
388.856152293552
 20
-497.462772509639
 11
205.856152293552
 21
-497.462772509639
  0
LINE
  8
SAISEN
 62
     7
 10
388.856152293552
 20
-501.162772509639
 11
205.856152293552
 21
-501.162772509639
  0
LINE
  8
SAISEN
 62
     7
 10
388.856152293552
 20
-504.862772509639
 11
205.856152293552
 21
-504.862772509639
  0
LINE
  8
SAISEN
 62
     7
 10
388.856152293552
 20
-508.562772509639
 11
205.856152293552
 21
-508.562772509639
  0
LINE
  8
SAISEN
 62
     7
 10
388.856152293552
 20
-512.262772509639
 11
205.856152293552
 21
-512.262772509639
  0
LINE
  8
SAISEN
 62
     7
 10
388.856152293552
 20
-515.962772509639
 11
205.856152293552
 21
-515.962772509639
  0
LINE
  8
SAISEN
 62
     7
 10
388.856152293552
 20
-519.662772509639
 11
205.856152293552
 21
-519.662772509639
  0
LINE
  8
SAISEN
 62
     7
 10
388.856152293552
 20
-523.362772509639
 11
205.856152293552
 21
-523.362772509639
  0
LINE
  8
SAISEN
 62
     7
 10
388.856152293552
 20
-527.062772509639
 11
205.856152293552
 21
-527.062772509639
  0
LINE
  8
SAISEN
 62
     7
 10
388.856152293552
 20
-530.762772509639
 11
205.856152293552
 21
-530.762772509639
  0
LINE
  8
SAISEN
 62
     7
 10
388.856152293552
 20
-534.462772509639
 11
205.856152293552
 21
-534.462772509639
  0
LINE
  8
SAISEN
 62
     7
 10
388.856152293552
 20
-538.162772509639
 11
205.856152293552
 21
-538.162772509639
  0
LINE
  8
SAISEN
 62
     7
 10
388.856152293552
 20
-541.862772509639
 11
205.856152293552
 21
-541.862772509639
  0
LINE
  8
SAISEN
 62
     7
 10
388.856152293552
 20
-545.562772509639
 11
205.856152293552
 21
-545.562772509639
  0
LINE
  8
SAISEN
 62
     7
 10
388.856152293552
 20
-549.262772509639
 11
205.856152293552
 21
-549.262772509639
  0
LINE
  8
SAISEN
 62
     7
 10
388.856152293552
 20
-552.962772509639
 11
205.856152293552
 21
-552.962772509639
  0
LINE
  8
SAISEN
 62
     7
 10
388.856152293552
 20
-556.662772509639
 11
205.856152293552
 21
-556.662772509639
  0
LINE
  8
SAISEN
 62
     7
 10
388.856152293552
 20
-560.36277250964
 11
205.856152293552
 21
-560.36277250964
  0
LINE
  8
SAISEN
 62
     7
 10
388.856152293552
 20
-564.06277250964
 11
205.856152293552
 21
-564.06277250964
  0
LINE
  8
SAISEN
 62
     7
 10
388.856152293552
 20
-567.76277250964
 11
205.856152293552
 21
-567.76277250964
  0
LINE
  8
SAISEN
 62
     7
 10
388.856152293552
 20
-571.46277250964
 11
205.856152293552
 21
-571.46277250964
  0
LINE
  8
SAISEN
 62
     7
 10
388.856152293552
 20
-575.16277250964
 11
205.856152293552
 21
-575.16277250964
  0
LINE
  8
SAISEN
 62
     7
 10
388.856152293552
 20
-578.86277250964
 11
205.856152293552
 21
-578.86277250964
  0
LINE
  8
SAISEN
 62
     7
 10
388.856152293552
 20
-582.56277250964
 11
205.856152293552
 21
-582.56277250964
  0
LINE
  8
SAISEN
 62
     7
 10
388.856152293552
 20
-586.26277250964
 11
205.856152293552
 21
-586.26277250964
  0
LINE
  8
SAISEN
 62
     7
 10
388.856152293552
 20
-589.96277250964
 11
205.856152293552
 21
-589.96277250964
  0
LINE
  8
SAISEN
 62
     7
 10
388.856152293552
 20
-593.66277250964
 11
205.856152293552
 21
-593.66277250964
  0
LINE
  8
SAISEN
 62
     7
 10
388.856152293552
 20
-597.36277250964
 11
205.856152293552
 21
-597.36277250964
  0
LINE
  8
SAISEN
 62
     7
 10
388.856152293552
 20
-601.06277250964
 11
205.856152293552
 21
-601.06277250964
  0
LINE
  8
SAISEN
 62
     7
 10
388.856152293552
 20
-604.76277250964
 11
205.856152293552
 21
-604.76277250964
  0
LINE
  8
SAISEN
 62
     7
 10
388.856152293552
 20
-608.46277250964
 11
205.856152293552
 21
-608.46277250964
  0
LINE
  8
SAISEN
 62
     7
 10
388.856152293552
 20
-612.16277250964
 11
205.856152293552
 21
-612.16277250964
  0
LINE
  8
SAISEN
 62
     7
 10
388.856152293552
 20
-615.86277250964
 11
205.856152293552
 21
-615.86277250964
  0
LINE
  8
SAISEN
 62
     7
 10
388.856152293552
 20
-619.56277250964
 11
205.856152293552
 21
-619.56277250964
  0
LINE
  8
罫線
 62
     7
 10
388.856152293552
 20
-623.26277250964
 11
205.856152293552
 21
-623.26277250964
  0
LINE
  8
罫線
 62
     7
 10
388.856152293552
 20
-634.06277250964
 11
205.856152293552
 21
-634.06277250964
  0
LINE
  8
罫線
 62
     7
 10
388.856152293552
 20
-641.46277250964
 11
205.856152293552
 21
-641.46277250964
  0
LINE
  8
SAISEN
 62
     7
 10
388.856152293552
 20
-645.16277250964
 11
205.856152293552
 21
-645.16277250964
  0
LINE
  8
SAISEN
 62
     7
 10
388.856152293552
 20
-652.56277250964
 11
205.856152293552
 21
-652.56277250964
  0
LINE
  8
SAISEN
 62
     7
 10
361.356152293552
 20
-656.26277250964
 11
205.856152293552
 21
-656.26277250964
  0
LINE
  8
SAISEN
 62
     7
 10
388.856152293552
 20
-659.962772509641
 11
205.856152293552
 21
-659.962772509641
  0
LINE
  8
SAISEN
 62
     7
 10
388.856152293552
 20
-663.66277250964
 11
205.856152293552
 21
-663.66277250964
  0
LINE
  8
SAISEN
 62
     7
 10
388.856152293552
 20
-667.362772509641
 11
205.856152293552
 21
-667.362772509641
  0
LINE
  8
SAISEN
 62
     7
 10
388.856152293552
 20
-671.06277250964
 11
205.856152293552
 21
-671.06277250964
  0
LINE
  8
SAISEN
 62
     7
 10
388.856152293552
 20
-674.762772509641
 11
205.856152293552
 21
-674.762772509641
  0
LINE
  8
SAISEN
 62
     7
 10
388.856152293552
 20
-678.462772509641
 11
205.856152293552
 21
-678.462772509641
  0
LINE
  8
罫線
 62
     7
 10
4.99817944215
 20
-696.6280431147
 11
187.99817944215
 21
-696.6280431147
  0
LINE
  8
SAISEN
 62
     7
 10
4.99817944215
 20
-700.3280431147
 11
187.99817944215
 21
-700.3280431147
  0
LINE
  8
SAISEN
 62
     7
 10
4.99817944215
 20
-704.0280431147
 11
187.99817944215
 21
-704.0280431147
  0
LINE
  8
SAISEN
 62
     7
 10
4.99817944215
 20
-707.7280431147
 11
187.99817944215
 21
-707.7280431147
  0
LINE
  8
SAISEN
 62
     7
 10
4.99817944215
 20
-711.4280431147
 11
187.99817944215
 21
-711.4280431147
  0
LINE
  8
SAISEN
 62
     7
 10
4.99817944215
 20
-715.1280431147
 11
187.99817944215
 21
-715.1280431147
  0
LINE
  8
SAISEN
 62
     7
 10
4.99817944215
 20
-718.8280431147
 11
187.99817944215
 21
-718.8280431147
  0
LINE
  8
SAISEN
 62
     7
 10
4.99817944215
 20
-722.5280431147
 11
187.99817944215
 21
-722.5280431147
  0
LINE
  8
SAISEN
 62
     7
 10
4.99817944215
 20
-726.2280431147
 11
187.99817944215
 21
-726.2280431147
  0
LINE
  8
SAISEN
 62
     7
 10
4.99817944215
 20
-729.9280431147
 11
187.99817944215
 21
-729.9280431147
  0
LINE
  8
SAISEN
 62
     7
 10
4.99817944215
 20
-733.6280431147
 11
187.99817944215
 21
-733.6280431147
  0
LINE
  8
SAISEN
 62
     7
 10
4.99817944215
 20
-737.3280431147
 11
187.99817944215
 21
-737.3280431147
  0
LINE
  8
SAISEN
 62
     7
 10
4.99817944215
 20
-741.0280431147
 11
187.99817944215
 21
-741.0280431147
  0
LINE
  8
罫線
 62
     7
 10
4.99817944215
 20
-744.7280431147
 11
187.99817944215
 21
-744.7280431147
  0
TEXT
  8
SAISEN
 62
     7
 10
93.047473808652
 20
-694.50560503955
 40
3.0
  1
特                    長
  0
TEXT
  8
SAISEN
 62
     7
 10
14.982338829553
 20
-694.804060191623
 40
3.0
  1
機    種    名
  0
TEXT
  8
SAISEN
 62
     7
 10
48.052475728899
 20
-694.518100938704
 40
3.0
  1
ベース･レール
 41
0.8
  0
TEXT
  8
SAISEN
 62
     7
 10
175.087321778813
 20
-694.503588138252
 40
3.0
  1
図  番
  0
TEXT
  8
SAISEN
 62
     7
 10
162.489744916818
 20
-693.073309236601
 40
2.5
  1
Ver
  0
TEXT
  8
SAISEN
 62
     7
 10
161.069104638262
 20
-695.396040511294
 40
1.5
  1
(バージョン)
  0
LINE
  8
罫線
 62
     7
 10
188.0
 20
-483.062772509639
 11
188.0
 21
-678.762772509641
  0
LINE
  8
罫線
 62
     7
 10
172.0
 20
-483.062772509639
 11
172.0
 21
-678.762772509641
  0
LINE
  8
罫線
 62
     7
 10
160.507281118808
 20
-483.062772509639
 11
160.507281118808
 21
-678.762772509641
  0
LINE
  8
罫線
 62
     7
 10
67.0
 20
-483.062772509639
 11
67.0
 21
-678.762772509641
  0
LINE
  8
罫線
 62
     7
 10
247.856152293552
 20
-483.062772509639
 11
247.856152293552
 21
-623.26277250964
  0
LINE
  8
罫線
 62
     7
 10
267.856152293552
 20
-483.062772509639
 11
267.856152293552
 21
-623.26277250964
  0
LINE
  8
罫線
 62
     7
 10
361.356152293552
 20
-483.062772509639
 11
361.356152293552
 21
-623.26277250964
  0
LINE
  8
罫線
 62
     7
 10
372.856152293552
 20
-483.062772509639
 11
372.856152293552
 21
-623.26277250964
  0
LINE
  8
罫線
 62
     7
 10
388.856152293552
 20
-483.062772509639
 11
388.856152293552
 21
-623.26277250964
  0
LINE
  8
罫線
 62
     7
 10
205.856152293552
 20
-483.062772509639
 11
205.856152293552
 21
-623.26277250964
  0
LINE
  8
SAISEN
 62
     7
 10
188.0
 20
-560.36277250964
 11
5.0
 21
-560.36277250964
  0
LINE
  8
SAISEN
 62
     7
 10
188.0
 20
-582.56277250964
 11
5.0
 21
-582.56277250964
  0
LINE
  8
SAISEN
 62
     7
 10
188.0
 20
-541.862772509639
 11
5.0
 21
-541.862772509639
  0
LINE
  8
SAISEN
 62
     7
 10
188.0
 20
-549.262772509639
 11
5.0
 21
-549.262772509639
  0
LINE
  8
SAISEN
 62
     7
 10
188.0
 20
-556.662772509639
 11
5.0
 21
-556.662772509639
  0
LINE
  8
SAISEN
 62
     7
 10
188.0
 20
-564.06277250964
 11
5.0
 21
-564.06277250964
  0
LINE
  8
SAISEN
 62
     7
 10
188.0
 20
-575.16277250964
 11
5.0
 21
-575.16277250964
  0
LINE
  8
SAISEN
 62
     7
 10
188.0
 20
-545.562772509639
 11
5.0
 21
-545.562772509639
  0
LINE
  8
SAISEN
 62
     7
 10
188.0
 20
-571.46277250964
 11
5.0
 21
-571.46277250964
  0
LINE
  8
SAISEN
 62
     7
 10
188.0
 20
-567.76277250964
 11
5.0
 21
-567.76277250964
  0
LINE
  8
SAISEN
 62
     7
 10
188.0
 20
-578.86277250964
 11
5.0
 21
-578.86277250964
  0
LINE
  8
SAISEN
 62
     7
 10
188.0
 20
-586.26277250964
 11
5.0
 21
-586.26277250964
  0
LINE
  8
SAISEN
 62
     7
 10
188.0
 20
-552.962772509639
 11
5.0
 21
-552.962772509639
  0
LINE
  8
SAISEN
 62
     7
 10
188.0
 20
-597.36277250964
 11
5.0
 21
-597.36277250964
  0
LINE
  8
SAISEN
 62
     7
 10
188.0
 20
-626.96277250964
 11
5.0
 21
-626.96277250964
  0
LINE
  8
SAISEN
 62
     7
 10
188.0
 20
-630.66277250964
 11
5.0
 21
-630.66277250964
  0
LINE
  8
SAISEN
 62
     7
 10
188.0
 20
-589.96277250964
 11
5.0
 21
-589.96277250964
  0
LINE
  8
SAISEN
 62
     7
 10
188.0
 20
-638.06277250964
 11
5.0
 21
-638.06277250964
  0
LINE
  8
SAISEN
 62
     7
 10
188.0
 20
-641.76277250964
 11
5.0
 21
-641.76277250964
  0
LINE
  8
SAISEN
 62
     7
 10
188.0
 20
-615.86277250964
 11
5.0
 21
-615.86277250964
  0
LINE
  8
SAISEN
 62
     7
 10
188.0
 20
-612.16277250964
 11
5.0
 21
-612.16277250964
  0
LINE
  8
SAISEN
 62
     7
 10
188.0
 20
-608.46277250964
 11
5.0
 21
-608.46277250964
  0
LINE
  8
SAISEN
 62
     7
 10
188.0
 20
-634.36277250964
 11
5.0
 21
-634.36277250964
  0
LINE
  8
SAISEN
 62
     7
 10
188.0
 20
-645.46277250964
 11
5.0
 21
-645.46277250964
  0
LINE
  8
SAISEN
 62
     7
 10
188.0
 20
-649.16277250964
 11
5.0
 21
-649.16277250964
  0
LINE
  8
SAISEN
 62
     7
 10
188.0
 20
-593.66277250964
 11
5.0
 21
-593.66277250964
  0
LINE
  8
SAISEN
 62
     7
 10
188.0
 20
-619.56277250964
 11
5.0
 21
-619.56277250964
  0
LINE
  8
SAISEN
 62
     7
 10
188.0
 20
-601.06277250964
 11
5.0
 21
-601.06277250964
  0
LINE
  8
SAISEN
 62
     7
 10
188.0
 20
-623.26277250964
 11
5.0
 21
-623.26277250964
  0
LINE
  8
SAISEN
 62
     7
 10
188.0
 20
-604.76277250964
 11
5.0
 21
-604.76277250964
  0
LINE
  8
SAISEN
 62
     7
 10
188.0
 20
-656.56277250964
 11
5.0
 21
-656.56277250964
  0
LINE
  8
罫線
 62
     7
 10
188.0
 20
-678.762772509641
 11
5.0
 21
-678.762772509641
  0
LINE
  8
SAISEN
 62
     7
 10
188.0
 20
-671.362772509641
 11
5.0
 21
-671.362772509641
  0
LINE
  8
SAISEN
 62
     7
 10
188.0
 20
-660.26277250964
 11
5.0
 21
-660.26277250964
  0
LINE
  8
SAISEN
 62
     7
 10
188.0
 20
-652.86277250964
 11
5.0
 21
-652.86277250964
  0
LINE
  8
SAISEN
 62
     7
 10
188.0
 20
-667.66277250964
 11
5.0
 21
-667.66277250964
  0
LINE
  8
SAISEN
 62
     7
 10
188.0
 20
-675.06277250964
 11
5.0
 21
-675.06277250964
  0
LINE
  8
SAISEN
 62
     7
 10
188.0
 20
-663.962772509641
 11
5.0
 21
-663.962772509641
  0
LINE
  8
SAISEN
 62
     7
 10
188.0
 20
-497.462772509639
 11
5.0
 21
-497.462772509639
  0
LINE
  8
SAISEN
 62
     7
 10
188.0
 20
-527.062772509639
 11
5.0
 21
-527.062772509639
  0
LINE
  8
SAISEN
 62
     7
 10
188.0
 20
-512.262772509639
 11
5.0
 21
-512.262772509639
  0
LINE
  8
SAISEN
 62
     7
 10
188.0
 20
-508.562772509639
 11
5.0
 21
-508.562772509639
  0
LINE
  8
SAISEN
 62
     7
 10
188.0
 20
-515.962772509639
 11
5.0
 21
-515.962772509639
  0
LINE
  8
SAISEN
 62
     7
 10
188.0
 20
-519.662772509639
 11
5.0
 21
-519.662772509639
  0
LINE
  8
SAISEN
 62
     7
 10
188.0
 20
-530.762772509639
 11
5.0
 21
-530.762772509639
  0
LINE
  8
SAISEN
 62
     7
 10
188.0
 20
-501.162772509639
 11
5.0
 21
-501.162772509639
  0
LINE
  8
SAISEN
 62
     7
 10
188.0
 20
-523.362772509639
 11
5.0
 21
-523.362772509639
  0
LINE
  8
SAISEN
 62
     7
 10
188.0
 20
-538.162772509639
 11
5.0
 21
-538.162772509639
  0
LINE
  8
SAISEN
 62
     7
 10
188.0
 20
-504.862772509639
 11
5.0
 21
-504.862772509639
  0
LINE
  8
SAISEN
 62
     7
 10
188.0
 20
-534.462772509639
 11
5.0
 21
-534.462772509639
  0
LINE
  8
罫線
 62
     7
 10
188.0
 20
-483.062772509639
 11
5.0
 21
-483.062772509639
  0
LINE
  8
SAISEN
 62
     7
 10
188.0
 20
-493.762772509639
 11
5.0
 21
-493.762772509639
  0
LINE
  8
罫線
 62
     7
 10
188.0
 20
-490.062772509639
 11
5.0
 21
-490.062772509639
  0
LINE
  8
罫線
 62
     7
 10
205.854933283483
 20
-739.2280431147
 11
388.854933283483
 21
-739.2280431147
  0
LINE
  8
罫線
 62
     7
 10
205.854933283483
 20
-744.7280431147
 11
388.854933283483
 21
-744.7280431147
  0
LINE
  8
罫線
 62
     7
 10
205.854933283483
 20
-739.2280431147
 11
205.854933283483
 21
-744.7280431147
  0
LINE
  8
罫線
 62
     7
 10
388.854933283483
 20
-739.2280431147
 11
388.854933283483
 21
-744.7280431147
  0
TEXT
  8
SAISEN
 62
     7
 10
208.69134591693
 20
-743.476289548379
 40
3.0
  1
改善・改訂の為記載内容の性能・寸法など、仕様が予告なく変更することがありますのでご了承お願い致します。
 41
0.9
  0
TEXT
  8
SAISEN
 62
     7
 10
204.874462841577
 20
-694.662688330732
 40
4.0
  1
● メモ
  0
TEXT
  8
SAISEN
 62
     7
 10
364.0934081225
 20
-695.43476231369
 40
3.0
  1
年    月    日
  0
LINE
  8
罫線
 10
205.854933283483
 20
-696.474402810819
 11
388.854933283483
 21
-696.474402810819
  0
TEXT
  8
SAISEN
 62
     7
 10
222.64072104585
 20
-639.150620513323
 40
3.0
  1
スイッチ・装置名
  0
TEXT
  8
SAISEN
 62
     7
 10
361.925858479595
 20
-640.230769906235
 40
1.5
  1
(バージョン)
  0
TEXT
  8
SAISEN
 62
     7
 10
211.988126686606
 20
-632.253479931682
 40
4.0
  1
検知スイッチと装置について
  0
TEXT
  8
SAISEN
 62
     7
 10
205.068124730369
 20
-633.462923284125
 40
5.0
  1
Ｄ
  0
TEXT
  8
SAISEN
 62
     7
 10
375.944075620146
 20
-639.338317533192
 40
3.0
  1
図  番
  0
TEXT
  8
SAISEN
 62
     7
 10
363.336498758151
 20
-637.908038631541
 40
2.5
  1
Ver
  0
TEXT
  8
SAISEN
 62
     7
 10
293.900962700009
 20
-639.340334434491
 40
3.0
  1
特                    長
  0
TEXT
  8
SAISEN
 62
     7
 10
293.905446660054
 20
-487.94033443449
 40
3.0
  1
特                    長
  0
TEXT
  8
SAISEN
 62
     7
 10
248.910448580301
 20
-487.952830333643
 40
3.0
  1
ベース･レール
 41
0.8
  0
TEXT
  8
SAISEN
 62
     7
 10
215.840311680955
 20
-488.238789586562
 40
3.0
  1
機   種   名
  0
TEXT
  8
SAISEN
 62
     7
 10
361.927077489663
 20
-488.830769906234
 40
1.5
  1
(バージョン)
  0
TEXT
  8
SAISEN
 62
     7
 10
375.945294630214
 20
-487.938317533191
 40
3.0
  1
図  番
  0
TEXT
  8
SAISEN
 62
     7
 10
363.34771776822
 20
-486.50803863154
 40
2.5
  1
Ver
  0
LINE
  8
PT
 10
394.304933283483
 20
-464.13189821327
 11
0.0
 21
-464.13189821327
  0
LINE
  8
PT
 10
0.0
 20
-754.024442280391
 11
394.304933283483
 21
-754.024442280391
  0
LINE
  8
PT
 10
394.304933283483
 20
-754.024442280391
 11
394.304933283483
 21
-464.13189821327
  0
LINE
  8
PT
 10
0.0
 20
-464.13189821327
 11
0.0
 21
-754.024442280391
  0
TEXT
  8
SAISEN
 62
     7
 10
206.00185940569
 20
-482.168489242461
 40
5.0
  1
Ｃ
  0
TEXT
  8
SAISEN
 62
     7
 10
173.818059312699
 20
-497.055924694468
 40
2.5
  1
A - 
  0
TEXT
  8
SAISEN
 62
     7
 10
183.842916517274
 20
-497.055924694468
 40
2.5
  1
2
 41
0.9
  0
TEXT
  8
SAISEN
 62
     7
 10
173.818059312699
 20
-500.755924694468
 40
2.5
  1
A - 
  0
TEXT
  8
SAISEN
 62
     7
 10
183.842916517274
 20
-500.755924694468
 40
2.5
  1
3
 41
0.9
  0
TEXT
  8
SAISEN
 62
     7
 10
173.818059312699
 20
-504.455924694468
 40
2.5
  1
A - 
  0
TEXT
  8
SAISEN
 62
     7
 10
183.842916517274
 20
-504.455924694468
 40
2.5
  1
4
 41
0.9
  0
TEXT
  8
SAISEN
 62
     7
 10
173.818059312699
 20
-508.155924694468
 40
2.5
  1
A - 
  0
TEXT
  8
SAISEN
 62
     7
 10
183.842916517274
 20
-508.155924694468
 40
2.5
  1
5
 41
0.9
  0
TEXT
  8
SAISEN
 62
     7
 10
173.818059312699
 20
-511.855924694468
 40
2.5
  1
A - 
  0
TEXT
  8
SAISEN
 62
     7
 10
183.842916517274
 20
-511.855924694468
 40
2.5
  1
6
 41
0.9
  0
TEXT
  8
SAISEN
 62
     7
 10
173.818059312699
 20
-515.555924694468
 40
2.5
  1
A - 
  0
TEXT
  8
SAISEN
 62
     7
 10
183.842916517274
 20
-515.555924694468
 40
2.5
  1
7
 41
0.9
  0
TEXT
  8
SAISEN
 62
     7
 10
173.818059312699
 20
-519.255924694468
 40
2.5
  1
A - 
  0
TEXT
  8
SAISEN
 62
     7
 10
183.842916517274
 20
-519.255924694468
 40
2.5
  1
8
 41
0.9
  0
TEXT
  8
SAISEN
 62
     7
 10
173.818059312699
 20
-522.955924694468
 40
2.5
  1
A - 
  0
TEXT
  8
SAISEN
 62
     7
 10
183.842916517274
 20
-522.955924694468
 40
2.5
  1
9
 41
0.9
  0
TEXT
  8
SAISEN
 62
     7
 10
173.818059312699
 20
-526.655924694468
 40
2.5
  1
A - 
  0
TEXT
  8
SAISEN
 62
     7
 10
182.95927284692
 20
-526.655924694468
 40
2.5
  1
10
 41
1.1
  0
TEXT
  8
SAISEN
 62
     7
 10
183.020435419094
 20
-530.355924694468
 40
2.5
  1
11
 41
1.2
  0
TEXT
  8
SAISEN
 62
     7
 10
183.020435419094
 20
-534.055924694468
 40
2.5
  1
12
 41
0.9
  0
TEXT
  8
SAISEN
 62
     7
 10
183.020435419094
 20
-537.755924694468
 40
2.5
  1
13
 41
0.9
  0
TEXT
  8
SAISEN
 62
     7
 10
183.020435419094
 20
-541.455924694468
 40
2.5
  1
14
 41
0.9
  0
TEXT
  8
SAISEN
 62
     7
 10
183.020435419094
 20
-545.155924694468
 40
2.5
  1
15
 41
0.9
  0
TEXT
  8
SAISEN
 62
     7
 10
183.020435419094
 20
-548.855924694468
 40
2.5
  1
16
 41
0.9
  0
TEXT
  8
SAISEN
 62
     7
 10
183.020435419094
 20
-552.555924694468
 40
2.5
  1
17
 41
0.9
  0
TEXT
  8
SAISEN
 62
     7
 10
183.020435419094
 20
-556.255924694468
 40
2.5
  1
18
 41
0.9
  0
TEXT
  8
SAISEN
 62
     7
 10
183.020435419094
 20
-559.955924694468
 40
2.5
  1
19
 41
0.9
  0
TEXT
  8
SAISEN
 62
     7
 10
182.408215998612
 20
-563.655924694468
 40
2.5
  1
20
  0
TEXT
  8
SAISEN
 62
     7
 10
182.408215998612
 20
-567.355924694468
 40
2.5
  1
21
 41
1.1
  0
TEXT
  8
SAISEN
 62
     7
 10
182.408215998612
 20
-571.055924694468
 40
2.5
  1
22
 41
0.9
  0
TEXT
  8
SAISEN
 62
     7
 10
182.408215998612
 20
-574.755924694468
 40
2.5
  1
23
 41
0.9
  0
TEXT
  8
SAISEN
 62
     7
 10
182.408215998612
 20
-578.455924694469
 40
2.5
  1
24
 41
0.9
  0
TEXT
  8
SAISEN
 62
     7
 10
182.408215998612
 20
-582.155924694468
 40
2.5
  1
25
 41
0.9
  0
TEXT
  8
SAISEN
 62
     7
 10
182.408215998612
 20
-585.855924694469
 40
2.5
  1
26
 41
0.9
  0
TEXT
  8
SAISEN
 62
     7
 10
182.408215998612
 20
-589.555924694469
 40
2.5
  1
27
 41
0.9
  0
TEXT
  8
SAISEN
 62
     7
 10
182.408215998612
 20
-593.255924694469
 40
2.5
  1
28
 41
0.9
  0
TEXT
  8
SAISEN
 62
     7
 10
182.408215998612
 20
-596.955924694469
 40
2.5
  1
29
 41
0.9
  0
TEXT
  8
SAISEN
 62
     7
 10
182.408215998612
 20
-600.655924694469
 40
2.5
  1
30
  0
TEXT
  8
SAISEN
 62
     7
 10
182.408283076796
 20
-604.355924694469
 40
2.5
  1
31
 41
1.1
  0
TEXT
  8
SAISEN
 62
     7
 10
182.408283076796
 20
-608.055924694469
 40
2.5
  1
32
 41
0.9
  0
TEXT
  8
SAISEN
 62
     7
 10
182.408283076796
 20
-611.755924694469
 40
2.5
  1
33
 41
0.9
  0
TEXT
  8
SAISEN
 62
     7
 10
182.408283076796
 20
-615.455924694469
 40
2.5
  1
34
 41
0.9
  0
TEXT
  8
SAISEN
 62
     7
 10
182.408283076796
 20
-619.155924694469
 40
2.5
  1
35
 41
0.9
  0
TEXT
  8
SAISEN
 62
     7
 10
182.408283076796
 20
-622.855924694469
 40
2.5
  1
36
 41
0.9
  0
TEXT
  8
SAISEN
 62
     7
 10
182.408283076796
 20
-626.555924694469
 40
2.5
  1
37
 41
0.9
  0
TEXT
  8
SAISEN
 62
     7
 10
182.408283076796
 20
-630.255924694469
 40
2.5
  1
38
 41
0.9
  0
TEXT
  8
SAISEN
 62
     7
 10
182.408283076796
 20
-633.955924694469
 40
2.5
  1
39
 41
0.9
  0
TEXT
  8
SAISEN
 62
     7
 10
182.408283076796
 20
-637.655924694469
 40
2.5
  1
40
  0
TEXT
  8
SAISEN
 62
     7
 10
182.408283076796
 20
-641.355924694469
 40
2.5
  1
41
 41
1.1
  0
TEXT
  8
SAISEN
 62
     7
 10
182.408283076796
 20
-645.055924694469
 40
2.5
  1
42
 41
0.9
  0
TEXT
  8
SAISEN
 62
     7
 10
182.408283076796
 20
-648.755924694469
 40
2.5
  1
43
 41
0.9
  0
TEXT
  8
SAISEN
 62
     7
 10
182.408283076796
 20
-652.455924694469
 40
2.5
  1
44
 41
0.9
  0
TEXT
  8
SAISEN
 62
     7
 10
182.408283076796
 20
-656.155924694469
 40
2.5
  1
45
 41
0.9
  0
TEXT
  8
SAISEN
 62
     7
 10
182.408283076796
 20
-659.855924694469
 40
2.5
  1
46
 41
0.9
  0
TEXT
  8
SAISEN
 62
     7
 10
182.408283076796
 20
-663.555924694469
 40
2.5
  1
47
 41
0.9
  0
TEXT
  8
SAISEN
 62
     7
 10
182.408283076796
 20
-667.255924694469
 40
2.5
  1
48
 41
0.9
  0
TEXT
  8
SAISEN
 62
     7
 10
182.408283076796
 20
-670.955924694469
 40
2.5
  1
49
 41
0.9
  0
TEXT
  8
SAISEN
 62
     7
 10
182.408283076796
 20
-674.655924694469
 40
2.5
  1
50
  0
TEXT
  8
SAISEN
 62
     7
 10
182.408283076796
 20
-678.35592469447
 40
2.5
  1
51
 41
1.1
  0
TEXT
  8
SAISEN
 62
     7
 10
7.484263318443
 20
-496.957039662263
 40
2.5
  1
内蔵式（ＥＢ）
  0
TEXT
  8
SAISEN
 62
     7
 10
68.565806729311
 20
-496.900679463951
 40
2.5
  1
１００mm見込
  0
TEXT
  8
SAISEN
 62
     7
 10
165.476646151034
 20
-496.859996585847
 40
2.5
  1
5
  0
TEXT
  8
SAISEN
 62
     7
 10
36.0
 20
-496.935611090834
 40
2.5
  1
基本納り図 
  0
TEXT
  8
SAISEN
 62
     7
 10
125.187757302052
 20
-496.900679463951
 40
2.5
  1
自動ドア用アルミサッシ納り
 41
0.9
  0
TEXT
  8
SAISEN
 62
     7
 10
165.615828237008
 20
-500.559996585847
 40
2.5
  1
3
  0
TEXT
  8
SAISEN
 62
     7
 10
69.534486442968
 20
-500.700679463951
 40
2.5
  1
ＬＩＸＩＬ様　１００mm見込
  0
TEXT
  8
SAISEN
 62
     7
 10
7.484263318443
 20
-500.578053928618
 40
2.5
  1
ＬＩＸＩＬ様
  0
TEXT
  8
SAISEN
 62
     7
 10
42.115400404103
 20
-500.776448627406
 40
2.5
  1
〃
  0
TEXT
  8
SAISEN
 62
     7
 10
141.310791862653
 20
-500.807103965447
 40
2.5
  1
〃
  0
TEXT
  8
SAISEN
 10
14.033795915002
 20
-504.717679616855
 40
2.5
  1
〃
  0
TEXT
  8
SAISEN
 62
     7
 10
42.115400404103
 20
-504.476448627406
 40
2.5
  1
〃
  0
TEXT
  8
SAISEN
 62
     7
 10
69.53106447927
 20
-504.476448627406
 40
2.5
  1
ＬＩＸＩＬ様
  0
TEXT
  8
SAISEN
 62
     7
 10
87.565158204786
 20
-504.476448627406
 40
2.5
  1
　引戸F型框
  0
TEXT
  8
SAISEN
 62
     7
 10
141.310791862653
 20
-504.507103965447
 40
2.5
  1
〃
  0
TEXT
  8
SAISEN
 62
     7
 10
166.036659327755
 20
-504.259996585847
 40
2.5
  1
1
  0
TEXT
  8
SAISEN
 10
14.033795915002
 20
-508.417679616855
 40
2.5
  1
〃
  0
TEXT
  8
SAISEN
 62
     7
 10
42.115400404103
 20
-508.176448627406
 40
2.5
  1
〃
  0
TEXT
  8
SAISEN
 62
     7
 10
90.356284330801
 20
-508.176448627406
 40
2.5
  1
フロアヒンジドア2型框
  0
TEXT
  8
SAISEN
 62
     7
 10
141.310791862653
 20
-508.207103965447
 40
2.5
  1
〃
  0
TEXT
  8
SAISEN
 62
     7
 10
166.036659327755
 20
-507.959996585848
 40
2.5
  1
1
  0
TEXT
  8
SAISEN
 10
14.033795915002
 20
-512.117679616855
 40
2.5
  1
〃
  0
TEXT
  8
SAISEN
 62
     7
 10
42.115400404103
 20
-511.876448627406
 40
2.5
  1
〃
  0
TEXT
  8
SAISEN
 62
     7
 10
90.356284330801
 20
-511.876448627406
 40
2.5
  1
１６０mm見込 ＴＳオートドア
  0
TEXT
  8
SAISEN
 62
     7
 10
141.310791862653
 20
-511.907103965447
 40
2.5
  1
〃
  0
TEXT
  8
SAISEN
 62
     7
 10
166.036659327755
 20
-511.659996585848
 40
2.5
  1
1
  0
TEXT
  8
SAISEN
 62
     7
 10
7.484263318443
 20
-515.535611090835
 40
2.5
  1
新日軽様 
  0
TEXT
  8
SAISEN
 62
     7
 10
69.388574791438
 20
-515.535611090835
 40
2.5
  1
新日軽様 
  0
TEXT
  8
SAISEN
 62
     7
 10
165.476646151034
 20
-515.459996585848
 40
2.5
  1
4
  0
TEXT
  8
SAISEN
 62
     7
 10
141.310791862653
 20
-515.607103965447
 40
2.5
  1
〃
  0
TEXT
  8
SAISEN
 62
     7
 10
42.115400404103
 20
-515.576448627406
 40
2.5
  1
〃
  0
TEXT
  8
SAISEN
 62
     7
 10
7.484263318443
 20
-519.135611090835
 40
2.5
  1
不二サッシ様
  0
TEXT
  8
SAISEN
 62
     7
 10
69.534486442968
 20
-519.100679463951
 40
2.5
  1
不二サッシ様
  0
TEXT
  8
SAISEN
 62
     7
 10
42.115400404103
 20
-519.335611090835
 40
2.5
  1
〃
  0
TEXT
  8
SAISEN
 62
     7
 10
165.476646151034
 20
-519.159996585848
 40
2.5
  1
4
  0
TEXT
  8
SAISEN
 62
     7
 10
141.310791862653
 20
-519.307103965447
 40
2.5
  1
〃
  0
TEXT
  8
SAISEN
 62
     7
 10
7.484263318443
 20
-522.935611090835
 40
2.5
  1
トステム様
  0
TEXT
  8
SAISEN
 62
     7
 10
69.534486442968
 20
-522.800679463951
 40
2.5
  1
トステム様
  0
TEXT
  8
SAISEN
 62
     7
 10
42.115400404103
 20
-523.035611090835
 40
2.5
  1
〃
  0
TEXT
  8
SAISEN
 62
     7
 10
165.476646151034
 20
-522.859996585848
 40
2.5
  1
4
  0
TEXT
  8
SAISEN
 62
     7
 10
141.310791862653
 20
-523.007103965447
 40
2.5
  1
〃
  0
TEXT
  8
SAISEN
 62
     7
 10
7.484263318443
 20
-526.535611090835
 40
2.5
  1
三協立山アルミ様
  0
TEXT
  8
SAISEN
 62
     7
 10
69.534486442968
 20
-526.500679463951
 40
2.5
  1
三協立山アルミ様
  0
TEXT
  8
SAISEN
 62
     7
 10
42.115400404103
 20
-526.535611090835
 40
2.5
  1
〃
  0
TEXT
  8
SAISEN
 62
     7
 10
42.115400404103
 20
-530.635611090835
 40
2.5
  1
〃
  0
TEXT
  8
SAISEN
 62
     7
 10
69.534486442968
 20
-530.200679463951
 40
2.5
  1
三協立山アルミ様　ARM-S納り
  0
TEXT
  8
SAISEN
 62
     7
 10
141.310791862653
 20
-530.607103965447
 40
2.5
  1
〃
  0
TEXT
  8
SAISEN
 62
     7
 10
141.310791862653
 20
-526.507103965447
 40
2.5
  1
〃
  0
TEXT
  8
SAISEN
 62
     7
 10
165.476646151034
 20
-526.559996585848
 40
2.5
  1
4
  0
TEXT
  8
SAISEN
 10
14.033795915002
 20
-530.617679616855
 40
2.5
  1
〃
  0
TEXT
  8
SAISEN
 62
     7
 10
42.115400404103
 20
-534.335611090835
 40
2.5
  1
〃
  0
TEXT
  8
SAISEN
 10
14.033795915002
 20
-534.317679616855
 40
2.5
  1
〃
  0
TEXT
  8
SAISEN
 62
     7
 10
69.53106447927
 20
-508.176448627406
 40
2.5
  1
ＬＩＸＩＬ様
  0
TEXT
  8
SAISEN
 62
     7
 10
69.53106447927
 20
-511.876448627406
 40
2.5
  1
ＬＩＸＩＬ様
  0
TEXT
  8
SAISEN
 62
     7
 10
69.534486442968
 20
-533.900679463952
 40
2.5
  1
三協立山アルミ様　STフロント
  0
TEXT
  8
SAISEN
 62
     7
 10
7.484263318443
 20
-537.735611090835
 40
2.5
  1
日本アルミ様
  0
TEXT
  8
SAISEN
 62
     7
 10
69.534486442968
 20
-537.700679463952
 40
2.5
  1
日本アルミ様
  0
TEXT
  8
SAISEN
 62
     7
 10
42.115400404103
 20
-537.735611090835
 40
2.5
  1
〃
  0
TEXT
  8
SAISEN
 62
     7
 10
165.476646151034
 20
-537.659996585848
 40
2.5
  1
4
  0
TEXT
  8
SAISEN
 62
     7
 10
141.310791862653
 20
-537.807103965447
 40
2.5
  1
〃
  0
TEXT
  8
SAISEN
 62
     7
 10
69.534486442968
 20
-541.400679463952
 40
2.5
  1
昭和フロント様
  0
TEXT
  8
SAISEN
 62
     7
 10
165.476646151034
 20
-541.359996585848
 40
2.5
  1
4
  0
TEXT
  8
SAISEN
 62
     7
 10
141.310791862653
 20
-541.407103965447
 40
2.5
  1
〃
  0
TEXT
  8
SAISEN
 62
     7
 10
7.484263318443
 20
-541.335611090835
 40
2.5
  1
昭和フロント様
  0
TEXT
  8
SAISEN
 62
     7
 10
42.115400404103
 20
-541.535611090835
 40
2.5
  1
〃
  0
TEXT
  8
SAISEN
 62
     7
 10
165.84289096559
 20
-534.059996585848
 40
2.5
  1
1
  0
TEXT
  8
SAISEN
 62
     7
 10
42.115400404103
 20
-545.435611090835
 40
2.5
  1
〃
  0
TEXT
  8
SAISEN
 62
     7
 10
7.484263318443
 20
-545.135611090835
 40
2.5
  1
ＹＫＫ ＡＰ様
  0
TEXT
  8
SAISEN
 62
     7
 10
165.476646151034
 20
-545.159996585848
 40
2.5
  1
4
  0
TEXT
  8
SAISEN
 62
     7
 10
69.484263318443
 20
-545.135611090835
 40
2.5
  1
ＹＫＫ ＡＰ様
  0
TEXT
  8
SAISEN
 62
     7
 10
141.310791862653
 20
-545.198159873015
 40
2.5
  1
〃
  0
TEXT
  8
SAISEN
 10
14.033795915002
 20
-549.117679616855
 40
2.5
  1
〃
  0
TEXT
  8
SAISEN
 62
     7
 10
42.115400404103
 20
-549.135611090835
 40
2.5
  1
〃
  0
TEXT
  8
SAISEN
 62
     7
 10
69.484263318443
 20
-548.835611090835
 40
2.5
  1
ＹＫＫ ＡＰ様
  0
TEXT
  8
SAISEN
 62
     7
 10
92.149371258779
 20
-548.799488831683
 40
2.5
  1
EXIMA 51e
 41
0.95
  0
TEXT
  8
SAISEN
 62
     7
 10
113.948422662123
 20
-548.799502602193
 40
2.5
  1
ＲＣ枠①
 41
0.95
  0
TEXT
  8
SAISEN
 62
     7
 10
141.310791862653
 20
-534.307103965447
 40
2.5
  1
〃
  0
TEXT
  8
SAISEN
 62
     7
 10
141.310791862653
 20
-549.107103965447
 40
2.5
  1
〃
  0
TEXT
  8
SAISEN
 62
     7
 10
165.476646151034
 20
-548.859996585848
 40
2.5
  1
3
  0
TEXT
  8
SAISEN
 10
14.033795915002
 20
-552.817679616855
 40
2.5
  1
〃
  0
TEXT
  8
SAISEN
 62
     7
 10
42.115400404103
 20
-552.835611090835
 40
2.5
  1
〃
  0
TEXT
  8
SAISEN
 62
     7
 10
69.484263318443
 20
-552.535611090835
 40
2.5
  1
ＹＫＫ ＡＰ様
  0
TEXT
  8
SAISEN
 62
     7
 10
92.149371258779
 20
-552.499488831683
 40
2.5
  1
EXIMA 51e
 41
0.95
  0
TEXT
  8
SAISEN
 62
     7
 10
113.948422662123
 20
-552.499502602193
 40
2.5
  1
ＲＣ枠②
 41
0.95
  0
TEXT
  8
SAISEN
 62
     7
 10
141.310791862653
 20
-552.807103965447
 40
2.5
  1
〃
  0
TEXT
  8
SAISEN
 62
     7
 10
165.476646151034
 20
-552.559996585848
 40
2.5
  1
2
  0
TEXT
  8
SAISEN
 62
     7
 10
7.484263318443
 20
-578.335611090835
 40
2.5
  1
三協立山アルミ様
  0
TEXT
  8
SAISEN
 62
     7
 10
69.534486442968
 20
-578.300679463952
 40
2.5
  1
三協立山アルミ様
  0
TEXT
  8
SAISEN
 62
     7
 10
7.484263318443
 20
-567.2427623114
 40
2.5
  1
新日軽様  
  0
TEXT
  8
SAISEN
 62
     7
 10
7.484263318443
 20
-571.135611090835
 40
2.5
  1
不二サッシ様
  0
TEXT
  8
SAISEN
 62
     7
 10
7.484263318443
 20
-574.686971527811
 40
2.5
  1
トステム様
  0
TEXT
  8
SAISEN
 62
     7
 10
7.484263318443
 20
-559.786455669586
 40
2.5
  1
ＬＩＸＩＬ様
 41
0.95
  0
TEXT
  8
SAISEN
 62
     7
 10
69.534486442968
 20
-567.300679463952
 40
2.5
  1
新日軽様
  0
TEXT
  8
SAISEN
 62
     7
 10
69.534486442968
 20
-571.100679463952
 40
2.5
  1
不二サッシ様
  0
TEXT
  8
SAISEN
 62
     7
 10
69.534486442968
 20
-574.652039900928
 40
2.5
  1
トステム様
  0
TEXT
  8
SAISEN
 62
     7
 10
141.310791862653
 20
-564.007103965447
 40
2.5
  1
〃
  0
TEXT
  8
SAISEN
 62
     7
 10
92.149371258779
 20
-600.739174312126
 40
2.5
  1
EXIMA 51e
 41
0.95
  0
TEXT
  8
SAISEN
 62
     7
 10
7.484263318443
 20
-596.88590500432
 40
2.5
  1
ＹＫＫ ＡＰ様
  0
TEXT
  8
SAISEN
 62
     7
 10
7.484263318443
 20
-593.257304714724
 40
2.5
  1
昭和フロント様
  0
TEXT
  8
SAISEN
 10
14.033795915001
 20
-604.52340804474
 40
2.5
  1
〃
  0
TEXT
  8
SAISEN
 10
14.033795915001
 20
-600.82340804474
 40
2.5
  1
〃
  0
TEXT
  8
SAISEN
 62
     7
 10
7.484263318443
 20
-589.561291309323
 40
2.5
  1
日本アルミ様
  0
TEXT
  8
SAISEN
 62
     7
 10
69.484263318443
 20
-600.675296571278
 40
2.5
  1
ＹＫＫ ＡＰ様
  0
TEXT
  8
SAISEN
 62
     7
 10
69.484263318443
 20
-596.88590500432
 40
2.5
  1
ＹＫＫ ＡＰ様
  0
TEXT
  8
SAISEN
 62
     7
 10
69.534486442968
 20
-593.222373087841
 40
2.5
  1
昭和フロント様
  0
TEXT
  8
SAISEN
 62
     7
 10
69.534486442968
 20
-589.52635968244
 40
2.5
  1
日本アルミ様
  0
TEXT
  8
SAISEN
 62
     7
 10
113.948422662123
 20
-600.739188082637
 40
2.5
  1
ＲＣ枠①
 41
0.95
  0
TEXT
  8
SAISEN
 62
     7
 10
7.484263318443
 20
-556.157039662264
 40
2.5
  1
内蔵式（ＨＢ）
  0
TEXT
  8
SAISEN
 62
     7
 10
68.565806729311
 20
-556.100679463952
 40
2.5
  1
１００mm見込
  0
TEXT
  8
SAISEN
 62
     7
 10
165.476646151034
 20
-556.259996585848
 40
2.5
  1
2
  0
TEXT
  8
SAISEN
 62
     7
 10
141.310791862653
 20
-560.407103965448
 40
2.5
  1
〃
  0
TEXT
  8
SAISEN
 62
     7
 10
42.115400404103
 20
-560.235611090835
 40
2.5
  1
〃
  0
TEXT
  8
SAISEN
 62
     7
 10
42.115400404103
 20
-563.5427623114
 40
2.5
  1
〃
  0
TEXT
  8
SAISEN
 62
     7
 10
42.115400404103
 20
-567.335611090835
 40
2.5
  1
〃
  0
TEXT
  8
SAISEN
 62
     7
 10
42.115400404103
 20
-571.135611090835
 40
2.5
  1
〃
  0
TEXT
  8
SAISEN
 62
     7
 10
42.115400404103
 20
-575.035611090835
 40
2.5
  1
〃
  0
TEXT
  8
SAISEN
 62
     7
 10
42.115400404103
 20
-578.735611090835
 40
2.5
  1
〃
  0
TEXT
  8
SAISEN
 62
     7
 10
42.115400404103
 20
-582.435611090835
 40
2.5
  1
〃
  0
TEXT
  8
SAISEN
 62
     7
 10
165.476646151034
 20
-559.959996585848
 40
2.5
  1
2
  0
TEXT
  8
SAISEN
 62
     7
 10
7.484263318443
 20
-563.486455669586
 40
2.5
  1
ＬＩＸＩＬ様
 41
0.95
  0
TEXT
  8
SAISEN
 62
     7
 10
69.53106447927
 20
-563.676448627406
 40
2.5
  1
ＬＩＸＩＬ様
  0
TEXT
  8
SAISEN
 62
     7
 10
87.565158204786
 20
-563.676448627406
 40
2.5
  1
　引戸F型框
  0
TEXT
  8
SAISEN
 62
     7
 10
69.534486442968
 20
-559.900679463952
 40
2.5
  1
ＬＩＸＩＬ様　１００mm見込
  0
TEXT
  8
SAISEN
 62
     7
 10
165.84289096559
 20
-563.659996585848
 40
2.5
  1
1
  0
TEXT
  8
SAISEN
 62
     7
 10
141.310791862653
 20
-567.707103965447
 40
2.5
  1
〃
  0
TEXT
  8
SAISEN
 62
     7
 10
141.310791862653
 20
-574.907103965448
 40
2.5
  1
〃
  0
TEXT
  8
SAISEN
 62
     7
 10
141.310791862653
 20
-571.507103965448
 40
2.5
  1
〃
  0
TEXT
  8
SAISEN
 62
     7
 10
141.310791862653
 20
-578.807103965448
 40
2.5
  1
〃
  0
TEXT
  8
SAISEN
 62
     7
 10
165.476646151034
 20
-567.359996585848
 40
2.5
  1
2
  0
TEXT
  8
SAISEN
 62
     7
 10
165.476646151034
 20
-571.059996585848
 40
2.5
  1
2
  0
TEXT
  8
SAISEN
 62
     7
 10
165.476646151034
 20
-574.759996585848
 40
2.5
  1
2
  0
TEXT
  8
SAISEN
 62
     7
 10
165.476646151034
 20
-578.459996585848
 40
2.5
  1
2
  0
TEXT
  8
SAISEN
 62
     7
 10
69.534486442968
 20
-582.000679463952
 40
2.5
  1
三協立山アルミ様　STフロント
  0
TEXT
  8
SAISEN
 10
14.033795915002
 20
-582.417679616855
 40
2.5
  1
〃
  0
TEXT
  8
SAISEN
 62
     7
 10
165.84289096559
 20
-582.159996585848
 40
2.5
  1
1
  0
TEXT
  8
SAISEN
 62
     7
 10
141.310791862653
 20
-582.507103965448
 40
2.5
  1
〃
  0
TEXT
  8
SAISEN
 62
     7
 10
69.534486442968
 20
-585.700679463952
 40
2.5
  1
三協立山アルミ様　ARM-S納り
  0
TEXT
  8
SAISEN
 62
     7
 10
42.115400404103
 20
-586.135611090835
 40
2.5
  1
〃
  0
TEXT
  8
SAISEN
 10
14.033795915002
 20
-586.117679616856
 40
2.5
  1
〃
  0
TEXT
  8
SAISEN
 62
     7
 10
165.476646151034
 20
-585.859996585848
 40
2.5
  1
2
  0
TEXT
  8
SAISEN
 62
     7
 10
42.115400404103
 20
-589.835611090835
 40
2.5
  1
〃
  0
TEXT
  8
SAISEN
 62
     7
 10
141.310791862653
 20
-586.207103965448
 40
2.5
  1
〃
  0
TEXT
  8
SAISEN
 62
     7
 10
141.310791862653
 20
-589.907103965448
 40
2.5
  1
〃
  0
TEXT
  8
SAISEN
 62
     7
 10
165.476646151034
 20
-589.559996585848
 40
2.5
  1
2
  0
TEXT
  8
SAISEN
 62
     7
 10
42.115400404103
 20
-593.535611090835
 40
2.5
  1
〃
  0
TEXT
  8
SAISEN
 62
     7
 10
141.310791862653
 20
-593.607103965448
 40
2.5
  1
〃
  0
TEXT
  8
SAISEN
 62
     7
 10
165.476646151034
 20
-593.259996585848
 40
2.5
  1
2
  0
TEXT
  8
SAISEN
 62
     7
 10
165.476646151034
 20
-596.959996585848
 40
2.5
  1
2
  0
TEXT
  8
SAISEN
 62
     7
 10
141.310791862653
 20
-597.307103965448
 40
2.5
  1
〃
  0
TEXT
  8
SAISEN
 62
     7
 10
42.115400404103
 20
-597.235611090835
 40
2.5
  1
〃
  0
TEXT
  8
SAISEN
 62
     7
 10
42.115400404103
 20
-600.935611090835
 40
2.5
  1
〃
  0
TEXT
  8
SAISEN
 62
     7
 10
165.476646151034
 20
-600.659996585848
 40
2.5
  1
2
  0
TEXT
  8
SAISEN
 62
     7
 10
42.115400404103
 20
-604.635611090835
 40
2.5
  1
〃
  0
TEXT
  8
SAISEN
 62
     7
 10
92.149371258779
 20
-604.439174312126
 40
2.5
  1
EXIMA 51e
 41
0.95
  0
TEXT
  8
SAISEN
 62
     7
 10
69.484263318443
 20
-604.375296571278
 40
2.5
  1
ＹＫＫ ＡＰ様
  0
TEXT
  8
SAISEN
 62
     7
 10
113.948422662123
 20
-604.439188082637
 40
2.5
  1
ＲＣ枠②
 41
0.95
  0
TEXT
  8
SAISEN
 62
     7
 10
141.310791862653
 20
-601.007103965448
 40
2.5
  1
〃
  0
TEXT
  8
SAISEN
 62
     7
 10
141.310791862653
 20
-604.707103965448
 40
2.5
  1
〃
  0
TEXT
  8
SAISEN
 62
     7
 10
165.476646151034
 20
-604.359996585848
 40
2.5
  1
2
  0
TEXT
  8
SAISEN
 62
     7
 10
69.668187599551
 20
-607.900679463952
 40
2.5
  1
LIXIL様１００mm見込
  0
TEXT
  8
SAISEN
 62
     7
 10
44.265394539754
 20
-607.835611090836
 40
2.5
  1
各社縦枠加工図
  0
TEXT
  8
SAISEN
 62
     7
 10
7.484263318443
 20
-607.886455669586
 40
2.5
  1
ＬＩＸＩＬ様(ＥＢ・ＨＢ)
 41
0.95
  0
TEXT
  8
SAISEN
 62
     7
 10
165.476646151034
 20
-608.059996585848
 40
2.5
  1
2
  0
TEXT
  8
SAISEN
 62
     7
 10
7.484263318443
 20
-622.735611090835
 40
2.5
  1
三協立山アルミ様
  0
TEXT
  8
SAISEN
 62
     7
 10
7.484263318443
 20
-611.6427623114
 40
2.5
  1
新日軽様  
  0
TEXT
  8
SAISEN
 62
     7
 10
7.484263318443
 20
-619.086971527811
 40
2.5
  1
トステム様
  0
TEXT
  8
SAISEN
 62
     7
 10
52.893734995002
 20
-611.735611090836
 40
2.5
  1
〃
  0
TEXT
  8
SAISEN
 10
14.033795915002
 20
-626.817679616856
 40
2.5
  1
〃
  0
TEXT
  8
SAISEN
 62
     7
 10
7.484263318443
 20
-637.585905004321
 40
2.5
  1
ＹＫＫ ＡＰ様
  0
TEXT
  8
SAISEN
 62
     7
 10
7.484263318443
 20
-633.957304714725
 40
2.5
  1
昭和フロント様
  0
TEXT
  8
SAISEN
 62
     7
 10
7.484263318443
 20
-630.261291309323
 40
2.5
  1
日本アルミ様
  0
TEXT
  8
SAISEN
 62
     7
 10
7.484263318443
 20
-615.535611090835
 40
2.5
  1
不二サッシ様
  0
TEXT
  8
SAISEN
 62
     7
 10
92.149371258779
 20
-641.439174312126
 40
2.5
  1
EXIMA 51e
 41
0.95
  0
TEXT
  8
SAISEN
 10
14.033795915001
 20
-641.52340804474
 40
2.5
  1
〃
  0
TEXT
  8
SAISEN
 62
     7
 10
69.484263318443
 20
-641.375296571278
 40
2.5
  1
ＹＫＫ ＡＰ様
  0
TEXT
  8
SAISEN
 62
     7
 10
113.948422662123
 20
-641.439188082637
 40
2.5
  1
ＲＣ枠①
 41
0.95
  0
TEXT
  8
SAISEN
 62
     7
 10
141.310791862653
 20
-641.507103965448
 40
2.5
  1
〃
  0
TEXT
  8
SAISEN
 62
     7
 10
141.310791862653
 20
-638.107103965448
 40
2.5
  1
〃
  0
TEXT
  8
SAISEN
 62
     7
 10
141.310791862653
 20
-645.407103965448
 40
2.5
  1
〃
  0
TEXT
  8
SAISEN
 62
     7
 10
141.310791862653
 20
-648.907103965448
 40
2.5
  1
〃
  0
TEXT
  8
SAISEN
 62
     7
 10
141.310791862653
 20
-652.807103965448
 40
2.5
  1
〃
  0
TEXT
  8
SAISEN
 62
     7
 10
141.310791862653
 20
-656.507103965448
 40
2.5
  1
〃
  0
TEXT
  8
SAISEN
 62
     7
 10
141.310791862653
 20
-623.007103965448
 40
2.5
  1
〃
  0
TEXT
  8
SAISEN
 62
     7
 10
141.310791862653
 20
-619.607103965448
 40
2.5
  1
〃
  0
TEXT
  8
SAISEN
 62
     7
 10
141.310791862653
 20
-626.907103965448
 40
2.5
  1
〃
  0
TEXT
  8
SAISEN
 62
     7
 10
141.310791862653
 20
-630.607103965448
 40
2.5
  1
〃
  0
TEXT
  8
SAISEN
 62
     7
 10
141.310791862653
 20
-634.307103965448
 40
2.5
  1
〃
  0
TEXT
  8
SAISEN
 62
     7
 10
141.310791862653
 20
-615.607103965448
 40
2.5
  1
〃
  0
TEXT
  8
SAISEN
 62
     7
 10
141.310791862653
 20
-612.207103965448
 40
2.5
  1
〃
  0
LINE
  8
罫線
 62
     7
 10
205.856152293552
 20
-634.06277250964
 11
205.856152293552
 21
-685.86277250964
  0
LINE
  8
罫線
 62
     7
 10
361.356152293552
 20
-634.06277250964
 11
361.356152293552
 21
-685.86277250964
  0
LINE
  8
罫線
 62
     7
 10
372.856152293552
 20
-634.06277250964
 11
372.856152293552
 21
-685.86277250964
  0
LINE
  8
罫線
 62
     7
 10
388.856152293552
 20
-634.06277250964
 11
388.856152293552
 21
-685.86277250964
  0
LINE
  8
罫線
 62
     7
 10
267.856152293552
 20
-634.06277250964
 11
267.856152293552
 21
-685.86277250964
  0
TEXT
  8
SAISEN
 62
     7
 10
52.893734995002
 20
-615.435611090836
 40
2.5
  1
〃
  0
TEXT
  8
SAISEN
 62
     7
 10
52.893734995002
 20
-619.135611090836
 40
2.5
  1
〃
  0
TEXT
  8
SAISEN
 62
     7
 10
52.893734995002
 20
-622.835611090836
 40
2.5
  1
〃
  0
TEXT
  8
SAISEN
 62
     7
 10
52.893734995002
 20
-626.535611090836
 40
2.5
  1
〃
  0
TEXT
  8
SAISEN
 62
     7
 10
52.893734995002
 20
-630.235611090836
 40
2.5
  1
〃
  0
TEXT
  8
SAISEN
 62
     7
 10
52.893734995002
 20
-633.935611090836
 40
2.5
  1
〃
  0
TEXT
  8
SAISEN
 62
     7
 10
52.893734995002
 20
-637.635611090836
 40
2.5
  1
〃
  0
TEXT
  8
SAISEN
 62
     7
 10
52.893734995002
 20
-641.335611090836
 40
2.5
  1
〃
  0
TEXT
  8
SAISEN
 62
     7
 10
52.893734995002
 20
-645.035611090836
 40
2.5
  1
〃
  0
TEXT
  8
SAISEN
 62
     7
 10
69.534486442968
 20
-622.700679463952
 40
2.5
  1
三協立山アルミ様
  0
TEXT
  8
SAISEN
 62
     7
 10
69.534486442968
 20
-611.700679463952
 40
2.5
  1
新日軽様
  0
TEXT
  8
SAISEN
 62
     7
 10
69.534486442968
 20
-615.500679463952
 40
2.5
  1
不二サッシ様
  0
TEXT
  8
SAISEN
 62
     7
 10
69.534486442968
 20
-619.052039900928
 40
2.5
  1
トステム様
  0
TEXT
  8
SAISEN
 62
     7
 10
69.534486442968
 20
-626.400679463952
 40
2.5
  1
三協立山アルミ様　ARM-S納り
  0
TEXT
  8
SAISEN
 62
     7
 10
69.534486442968
 20
-633.922373087841
 40
2.5
  1
昭和フロント様
  0
TEXT
  8
SAISEN
 62
     7
 10
69.534486442968
 20
-630.22635968244
 40
2.5
  1
日本アルミ様
  0
TEXT
  8
SAISEN
 62
     7
 10
69.484263318443
 20
-637.585905004321
 40
2.5
  1
ＹＫＫ ＡＰ様
  0
TEXT
  8
SAISEN
 62
     7
 10
92.149371258779
 20
-645.139174312127
 40
2.5
  1
EXIMA 51e
 41
0.95
  0
TEXT
  8
SAISEN
 62
     7
 10
69.484263318443
 20
-645.075296571279
 40
2.5
  1
ＹＫＫ ＡＰ様
  0
TEXT
  8
SAISEN
 62
     7
 10
113.948422662123
 20
-645.139188082637
 40
2.5
  1
ＲＣ枠②
 41
0.95
  0
TEXT
  8
SAISEN
 10
14.033795915001
 20
-645.22340804474
 40
2.5
  1
〃
  0
TEXT
  8
SAISEN
 62
     7
 10
15.607864363289
 20
-648.657039662264
 40
2.5
  1
（ＮＢ３）
  0
TEXT
  8
SAISEN
 10
7.484248788751
 20
-648.635611090836
 40
2.5
  1
内蔵式
  0
TEXT
  8
SAISEN
 62
     7
 10
69.345903555368
 20
-648.600679463952
 40
2.5
  1
７０mm見込
  0
TEXT
  8
SAISEN
 62
     7
 10
165.476646151035
 20
-648.659996585848
 40
2.5
  1
5
  0
TEXT
  8
SAISEN
 62
     7
 10
44.059602336848
 20
-648.635611090836
 40
2.5
  1
基本納り図
  0
TEXT
  8
SAISEN
 62
     7
 10
69.345903555368
 20
-652.300679463952
 40
2.5
  1
ＬＩＸＩＬ様７０mm見込　引戸Ｆ型框
  0
TEXT
  8
SAISEN
 62
     7
 10
165.871700650988
 20
-652.359996585849
 40
2.5
  1
1
  0
TEXT
  8
SAISEN
 62
     7
 10
69.345903555368
 20
-656.000679463952
 40
2.5
  1
トステム様１００mm見込　ＴＳオートドア
  0
LINE
  8
SAISEN
 62
     7
 10
188.0
 20
-523.362772509639
 11
5.0
 21
-523.362772509639
  0
TEXT
  8
SAISEN
 62
     7
 10
165.871700650988
 20
-656.059996585849
 40
2.5
  1
1
  0
TEXT
  8
SAISEN
 62
     7
 10
165.476646151034
 20
-611.759996585848
 40
2.5
  1
2
  0
TEXT
  8
SAISEN
 62
     7
 10
165.476646151034
 20
-615.459996585848
 40
2.5
  1
2
  0
TEXT
  8
SAISEN
 62
     7
 10
165.476646151034
 20
-619.159996585848
 40
2.5
  1
2
  0
TEXT
  8
SAISEN
 62
     7
 10
165.476646151034
 20
-622.859996585848
 40
2.5
  1
2
  0
TEXT
  8
SAISEN
 62
     7
 10
165.476646151034
 20
-626.559996585848
 40
2.5
  1
2
  0
TEXT
  8
SAISEN
 62
     7
 10
165.476646151034
 20
-630.259996585848
 40
2.5
  1
2
  0
TEXT
  8
SAISEN
 62
     7
 10
165.476646151034
 20
-633.959996585848
 40
2.5
  1
2
  0
TEXT
  8
SAISEN
 62
     7
 10
165.476646151034
 20
-637.659996585848
 40
2.5
  1
2
  0
TEXT
  8
SAISEN
 62
     7
 10
165.476646151034
 20
-641.359996585848
 40
2.5
  1
2
  0
TEXT
  8
SAISEN
 62
     7
 10
165.476646151034
 20
-645.059996585848
 40
2.5
  1
2
  0
TEXT
  8
SAISEN
 62
     7
 10
15.607864363289
 20
-659.757039662264
 40
2.5
  1
（ＢＡ）
  0
TEXT
  8
SAISEN
 62
     7
 10
165.476646151035
 20
-659.759996585848
 40
2.5
  1
5
  0
TEXT
  8
SAISEN
 62
     7
 10
68.56580672931
 20
-659.700679463953
 40
2.5
  1
１００mm見込  自動ドア用アルミサッシ納り
  0
TEXT
  8
SAISEN
 62
     7
 10
130.535027316294
 20
-659.700679463953
 40
2.5
  1
（ベース見付１１５mmベース）
 41
0.7
  0
TEXT
  8
SAISEN
 62
     7
 10
69.513057099931
 20
-663.400679463953
 40
2.5
  1
LIXIL様、新日軽様、三協アルミ様、立山アルミ様、昭和フロント様、日本アルミ様、ＹＫＫ ＡＰ様
 41
0.645
  0
TEXT
  8
SAISEN
 62
     7
 10
15.746033221668
 20
-663.435611090836
 40
2.5
  1
（ＮＢ３）
  0
TEXT
  8
SAISEN
 10
10.505269647608
 20
-663.435611090836
 40
2.5
  1
〃
  0
TEXT
  8
SAISEN
 62
     7
 10
7.484248788751
 20
-652.335611090836
 40
2.5
  1
ＬＩＸＩＬ様（ＮＢ３）
  0
TEXT
  8
SAISEN
 62
     7
 10
7.484248788751
 20
-656.035611090836
 40
2.5
  1
トステム様　（ＮＢ３）
  0
TEXT
  8
SAISEN
 10
7.484248788751
 20
-659.735611090836
 40
2.5
  1
内蔵式
  0
TEXT
  8
SAISEN
 10
7.484248788751
 20
-663.435611090836
 40
2.5
  1
内蔵式
  0
TEXT
  8
SAISEN
 62
     7
 10
52.893734995002
 20
-652.41720759619
 40
2.5
  1
〃
  0
TEXT
  8
SAISEN
 62
     7
 10
52.893734995002
 20
-656.11720759619
 40
2.5
  1
〃
  0
TEXT
  8
SAISEN
 62
     7
 10
52.893734995002
 20
-659.81720759619
 40
2.5
  1
〃
  0
TEXT
  8
SAISEN
 62
     7
 10
44.265394539754
 20
-663.335611090836
 40
2.5
  1
各社縦枠加工図
  0
TEXT
  8
SAISEN
 62
     7
 10
165.476646151035
 20
-663.459996585848
 40
2.5
  1
4
  0
TEXT
  8
SAISEN
 62
     7
 10
69.476277674293
 20
-667.100679463953
 40
2.5
  1
三協アルミ様、昭和フロント様、ＹＫＫ ＡＰ様
  0
TEXT
  8
SAISEN
 62
     7
 10
18.625941561994
 20
-667.157039662265
 40
2.5
  1
レール一体無目（ＣＦ）
  0
TEXT
  8
SAISEN
 10
10.505269647608
 20
-667.435611090836
 40
2.5
  1
〃
  0
TEXT
  8
SAISEN
 62
     7
 10
165.476646151035
 20
-667.159996585848
 40
2.5
  1
5
  0
TEXT
  8
SAISEN
 62
     7
 10
165.476646151035
 20
-670.859996585849
 40
2.5
  1
3
  0
TEXT
  8
SAISEN
 62
     7
 10
165.476646151035
 20
-674.559996585848
 40
2.5
  1
4
  0
TEXT
  8
SAISEN
 62
     7
 10
165.476646151035
 20
-678.259996585849
 40
2.5
  1
2
  0
TEXT
  8
SAISEN
 62
     7
 10
69.520963630039
 20
-670.800679463953
 40
2.5
  1
搭載機種ＥＢ、ＢＣ、ＦＣ用納り
  0
TEXT
  8
SAISEN
 62
     7
 10
7.512763289809
 20
-670.857039662265
 40
2.5
  1
ギヤレスダイレクトドライブモーターＳＤ１０Ｔ基本納り図
 41
0.72
  0
TEXT
  8
SAISEN
 62
     7
 10
69.520963630039
 20
-674.500679463953
 40
2.5
  1
原寸図を作成される場合トレース用図面としてご利用ください
  0
TEXT
  8
SAISEN
 62
     7
 10
18.007741205427
 20
-674.585611090836
 40
2.5
  1
（ＥＢ）原寸参考図
  0
TEXT
  8
SAISEN
 62
     7
 10
17.971376417554
 20
-678.285611090836
 40
2.5
  1
（ＨＢ）原寸参考図
  0
TEXT
  8
SAISEN
 10
10.505269647608
 20
-678.635611090836
 40
2.5
  1
〃
  0
TEXT
  8
SAISEN
 10
7.484263318444
 20
-674.557039662265
 40
2.5
  1
内蔵式
  0
TEXT
  8
SAISEN
 62
     7
 10
93.406044263658
 20
-678.826378276436
 40
2.5
  1
〃
  0
TEXT
  8
SAISEN
 62
     7
 10
165.170005605543
 20
-703.625267190908
 40
2.5
  1
5
  0
TEXT
  8
SAISEN
 62
     7
 10
53.617338249477
 20
-707.203703299943
 40
2.5
  1
ＤＣ
  0
TEXT
  8
SAISEN
 62
     7
 10
69.587029074207
 20
-710.985352032075
 40
2.5
  1
木製無目納り図
  0
TEXT
  8
SAISEN
 62
     7
 10
69.587029074207
 20
-707.362044508495
 40
2.5
  1
無目に簡単に後付
  0
TEXT
  8
SAISEN
 62
     7
 10
53.617338249477
 20
-710.955582252094
 40
2.5
  1
ＤＣ
  0
TEXT
  8
SAISEN
 62
     7
 10
32.681546258245
 20
-710.955582252094
 40
2.5
  1
（ＤＣ）
  0
TEXT
  8
SAISEN
 62
     7
 10
23.53382952303
 20
-711.051276394991
 40
2.5
  1
〃
  0
TEXT
  8
SAISEN
 62
     7
 10
165.146579002766
 20
-707.225267190908
 40
2.5
  1
2
  0
TEXT
  8
SAISEN
 62
     7
 10
69.587029074207
 20
-703.420671618694
 40
2.5
  1
木製無目納り図
  0
TEXT
  8
SAISEN
 62
     7
 10
23.53382952303
 20
-707.29939744284
 40
2.5
  1
〃
  0
TEXT
  8
SAISEN
 62
     7
 10
23.53382952303
 20
-703.88659598161
 40
2.5
  1
〃
  0
TEXT
  8
SAISEN
 62
     7
 10
32.681546258245
 20
-707.103703299943
 40
2.5
  1
（ＤＣ）
  0
TEXT
  8
SAISEN
 62
     7
 10
69.587029074207
 20
-699.849243047265
 40
2.5
  1
無目に簡単に後付
  0
TEXT
  8
SAISEN
 62
     7
 10
53.617338249477
 20
-703.47086723052
 40
2.5
  1
ＢＣ
  0
TEXT
  8
SAISEN
 62
     7
 10
53.617338249477
 20
-699.67086723052
 40
2.5
  1
ＢＣ
  0
TEXT
  8
SAISEN
 62
     7
 10
165.170005605543
 20
-700.025267190908
 40
2.5
  1
5
  0
LINE
  8
罫線
 62
     7
 10
47.0
 20
-689.6280431147
 11
47.0
 21
-744.7280431147
  0
TEXT
  8
SAISEN
 62
     7
 10
165.146579002766
 20
-710.925267190908
 40
2.5
  1
2
  0
TEXT
  8
SAISEN
 62
     7
 10
165.524047217921
 20
-714.625267190908
 40
2.5
  1
1
  0
TEXT
  8
SAISEN
 62
     7
 10
165.146579002766
 20
-718.325267190908
 40
2.5
  1
5
  0
TEXT
  8
SAISEN
 62
     7
 10
165.146579002766
 20
-722.025267190908
 40
2.5
  1
5
  0
TEXT
  8
SAISEN
 62
     7
 10
165.146579002766
 20
-725.725267190908
 40
2.5
  1
4
  0
TEXT
  8
SAISEN
 62
     7
 10
165.146579002766
 20
-729.425267190908
 40
2.5
  1
4
  0
TEXT
  8
SAISEN
 62
     7
 10
165.146579002766
 20
-733.125267190908
 40
2.5
  1
2
  0
TEXT
  8
SAISEN
 62
     7
 10
165.146579002766
 20
-740.525267190908
 40
2.5
  1
5
  0
TEXT
  8
SAISEN
 10
165.146579002766
 20
-744.225267190909
 40
2.5
  1
2
  0
TEXT
  8
SAISEN
 62
     7
 10
69.587029074207
 20
-714.685352032075
 40
2.5
  1
ＬＩＸＩＬ様　フロンテック
  0
TEXT
  8
SAISEN
 62
     7
 10
53.617338249477
 20
-714.655582252094
 40
2.5
  1
ＤＣ
  0
TEXT
  8
SAISEN
 62
     7
 10
32.681546258245
 20
-714.655582252094
 40
2.5
  1
（ＤＣ）
  0
TEXT
  8
SAISEN
 62
     7
 10
23.53382952303
 20
-714.751276394991
 40
2.5
  1
〃
  0
TEXT
  8
SAISEN
 62
     7
 10
53.617338249477
 20
-718.355582252094
 40
2.5
  1
ＢＣ
  0
TEXT
  8
SAISEN
 62
     7
 10
32.681546258245
 20
-718.355582252094
 40
2.5
  1
（ＮＣ）
  0
TEXT
  8
SAISEN
 62
     7
 10
23.53382952303
 20
-718.451276394991
 40
2.5
  1
〃
  0
TEXT
  8
SAISEN
 62
     7
 10
69.219867569251
 20
-718.29839153095
 40
2.5
  1
コンパクトでスマートに納る７０mm見込の後付式
  0
TEXT
  8
SAISEN
 62
     7
 10
53.617338249477
 20
-722.055582252094
 40
2.5
  1
ＣＣ
  0
TEXT
  8
SAISEN
 62
     7
 10
23.53382952303
 20
-722.151276394991
 40
2.5
  1
〃
  0
TEXT
  8
SAISEN
 62
     7
 10
69.587029074207
 20
-722.02804167131
 40
2.5
  1
主に防熱ドア用途のベース、傾斜カバーの組合わせ例
  0
TEXT
  8
SAISEN
 62
     7
 10
53.617338249477
 20
-725.740749844207
 40
2.5
  1
ＢＧ
  0
TEXT
  8
SAISEN
 62
     7
 10
7.600473146355
 20
-725.592975539842
 40
2.5
  1
重    量    後    付    式
 41
0.98
  0
TEXT
  8
SAISEN
 62
     7
 10
69.587029074207
 20
-725.747697089524
 40
2.5
  1
重量ドアで頻度の多い出入口に
  0
TEXT
  8
SAISEN
 62
     7
 10
53.617338249477
 20
-729.652363156029
 40
2.5
  1
ＢＥ
  0
TEXT
  8
SAISEN
 62
     7
 10
69.587029074207
 20
-729.604839946666
 40
2.5
  1
既設引戸をそのまま自動化
  0
TEXT
  8
SAISEN
 62
     7
 10
53.617338249477
 20
-740.340749844207
 40
2.5
  1
ＢＣ
  0
TEXT
  8
SAISEN
 62
     7
 10
7.484235059707
 20
-740.292975539842
 40
2.5
  1
後   　　   付  　 　  式
 41
1.02
  0
TEXT
  8
SAISEN
 62
     7
 10
69.489249170356
 20
-740.447697089524
 40
2.5
  1
ＢＣベース原寸参考図
  0
TEXT
  8
SAISEN
 62
     7
 10
53.617338249477
 20
-733.304055213424
 40
2.5
  1
ＢＥ
  0
TEXT
  8
SAISEN
 62
     7
 10
69.587029074207
 20
-733.256532004061
 40
2.5
  1
ＬＩＸＩＬ様　上吊式納り図
  0
TEXT
  8
SAISEN
 62
     7
 10
23.53382952303
 20
-744.256478595296
 40
2.5
  1
〃
  0
TEXT
  8
SAISEN
 62
     7
 10
32.681546258244
 20
-744.1607844524
 40
2.5
  1
（ＤＣ）
  0
TEXT
  8
SAISEN
 62
     7
 10
53.617338249477
 20
-744.1607844524
 40
2.5
  1
ＤＣ
  0
TEXT
  8
SAISEN
 62
     7
 10
69.489249170356
 20
-744.147697089524
 40
2.5
  1
ＤＣベース原寸参考図
  0
TEXT
  8
SAISEN
 62
     7
 10
7.600473146355
 20
-729.492975539842
 40
2.5
  1
小    型    後    付    式
 41
0.98
  0
TEXT
  8
SAISEN
 62
     7
 10
23.53382952303
 20
-733.656478595297
 40
2.5
  1
〃
  0
TEXT
  8
SAISEN
 62
     7
 10
53.617338249477
 20
-737.004055213424
 40
2.5
  1
ＢＥ
  0
TEXT
  8
SAISEN
 62
     7
 10
69.587029074207
 20
-736.956532004061
 40
2.5
  1
ＬＩＸＩＬ様　テクスライト
  0
TEXT
  8
SAISEN
 62
     7
 10
23.53382952303
 20
-737.356478595297
 40
2.5
  1
〃
  0
TEXT
  8
SAISEN
 62
     7
 10
165.524047217921
 20
-736.825267190908
 40
2.5
  1
1
  0
TEXT
  8
SAISEN
 62
     7
 10
269.74764878875
 20
-504.369686727918
 40
2.5
  1
限られたスペースで間口を広く使いたい場合に最適（見込１００×見付２００）
 41
0.85
  0
TEXT
  8
SAISEN
 62
     7
 10
269.74764878875
 20
-497.076829585061
 40
2.5
  1
クリーンな作業環境に加えて、経済的でフレキシブルな出入口に
  0
TEXT
  8
SAISEN
 62
     7
 10
269.74764878875
 20
-493.269686727918
 40
2.5
  1
既設引戸をそのまま自動化
  0
TEXT
  8
SAISEN
 62
     7
 10
207.725969824459
 20
-500.657822321094
 40
2.5
  1
後  付  式  ２  重  引 戸
  0
TEXT
  8
SAISEN
 62
     7
 10
225.678540478393
 20
-504.736278501121
 40
2.5
  1
〃
  0
TEXT
  8
SAISEN
 62
     7
 10
207.725969824459
 20
-496.957822321094
 40
2.5
  1
後 付 式 ビ ニ ー ル ド ア
 41
0.96
  0
TEXT
  8
SAISEN
 62
     7
 10
207.725969824459
 20
-493.157822321094
 40
2.5
  1
小 型 後 付 式 下 戸 車
 41
0.96
  0
TEXT
  8
SAISEN
 62
     7
 10
366.231073558206
 20
-493.259996585847
 40
2.5
  1
4
  0
TEXT
  8
SAISEN
 62
     7
 10
254.475311100878
 20
-496.996899481917
 40
2.5
  1
ＢＩ
  0
TEXT
  8
SAISEN
 62
     7
 10
366.231073558206
 20
-496.959996585847
 40
2.5
  1
3
  0
TEXT
  8
SAISEN
 62
     7
 10
366.231073558206
 20
-500.659996585847
 40
2.5
  1
3
  0
TEXT
  8
SAISEN
 62
     7
 10
366.231073558206
 20
-504.359996585848
 40
2.5
  1
5
  0
TEXT
  8
SAISEN
 62
     7
 10
385.315626614272
 20
-493.355924694468
 40
2.5
  1
1
 41
0.9
  0
TEXT
  8
SAISEN
 62
     7
 10
384.699068810825
 20
-497.055924694468
 40
2.5
  1
2
 41
0.9
  0
TEXT
  8
SAISEN
 62
     7
 10
384.699068810825
 20
-500.755924694468
 40
2.5
  1
3
 41
0.9
  0
TEXT
  8
SAISEN
 62
     7
 10
384.699068810825
 20
-504.455924694468
 40
2.5
  1
4
 41
0.9
  0
TEXT
  8
SAISEN
 62
     7
 10
384.699068810825
 20
-508.155924694468
 40
2.5
  1
5
 41
0.9
  0
TEXT
  8
SAISEN
 62
     7
 10
384.699068810825
 20
-511.855924694468
 40
2.5
  1
6
 41
0.9
  0
TEXT
  8
SAISEN
 62
     7
 10
384.699068810825
 20
-515.555924694468
 40
2.5
  1
7
 41
0.9
  0
TEXT
  8
SAISEN
 62
     7
 10
384.699068810825
 20
-519.255924694468
 40
2.5
  1
8
 41
0.9
  0
TEXT
  8
SAISEN
 62
     7
 10
384.699068810825
 20
-522.955924694468
 40
2.5
  1
9
 41
0.9
  0
TEXT
  8
SAISEN
 62
     7
 10
269.74764878875
 20
-500.712543870776
 40
2.5
  1
本体長さとドア幅についての計算式
  0
TEXT
  8
SAISEN
 62
     7
 10
251.003733962685
 20
-500.620058359985
 40
2.5
  1
ＣＮ・ＢＷ
  0
TEXT
  8
SAISEN
 62
     7
 10
254.475311100878
 20
-504.396899481917
 40
2.5
  1
ＣＮ
  0
TEXT
  8
SAISEN
 62
     7
 10
254.475311100878
 20
-508.096899481917
 40
2.5
  1
ＢＷ
  0
TEXT
  8
SAISEN
 62
     7
 10
225.678540478393
 20
-508.436278501121
 40
2.5
  1
〃
  0
TEXT
  8
SAISEN
 62
     7
 10
271.07874878875
 20
-508.005401013633
 40
2.5
  1
                      〃                     （見込１３０×見付２５０）
 41
0.85
  0
TEXT
  8
SAISEN
 62
     7
 10
366.231073558206
 20
-508.059996585848
 40
2.5
  1
2
  0
TEXT
  8
SAISEN
 62
     7
 10
269.74764878875
 20
-511.662543870776
 40
2.5
  1
オーダーサッシにベース一式取付 主要部品配置図（立体図）
  0
TEXT
  8
SAISEN
 62
     7
 10
269.74764878875
 20
-519.236300333954
 40
2.5
  1
引分ドアのフラットバー基準ピッチ図
  0
TEXT
  8
SAISEN
 62
     7
 10
269.74764878875
 20
-515.476829585062
 40
2.5
  1
片引ドアのフラットバー基準ピッチ図
  0
TEXT
  8
SAISEN
 62
     7
 10
248.558041668583
 20
-515.564879083359
 40
2.5
  1
ＥＢ・ＨＢ・ＢＣ・ＤＣ・ＢＧ
 41
0.45
  0
TEXT
  8
SAISEN
 62
     7
 10
207.377257747409
 20
-511.765080458024
 40
2.5
  1
フラットバー式　納り図
  0
TEXT
  8
SAISEN
 62
     7
 10
225.678540478393
 20
-516.036278501121
 40
2.5
  1
〃
  0
TEXT
  8
SAISEN
 62
     7
 10
254.092452636748
 20
-522.972659796342
 40
2.5
  1
ＥＢ
  0
TEXT
  8
SAISEN
 62
     7
 10
254.128166922462
 20
-511.864879083359
 40
2.5
  1
ＢＣ
  0
TEXT
  8
SAISEN
 62
     7
 10
225.678540478393
 20
-527.065615356701
 40
2.5
  1
〃
  0
TEXT
  8
SAISEN
 62
     7
 10
366.231073558206
 20
-511.759996585848
 40
2.5
  1
5
  0
TEXT
  8
SAISEN
 62
     7
 10
366.231073558206
 20
-515.459996585848
 40
2.5
  1
5
  0
TEXT
  8
SAISEN
 62
     7
 10
366.231073558206
 20
-519.159996585848
 40
2.5
  1
5
  0
TEXT
  8
SAISEN
 62
     7
 10
248.558041668583
 20
-519.264879083359
 40
2.5
  1
ＥＢ・ＨＢ・ＢＣ・ＤＣ・ＢＧ
 41
0.45
  0
TEXT
  8
SAISEN
 62
     7
 10
225.678540478393
 20
-519.636278501121
 40
2.5
  1
〃
  0
TEXT
  8
SAISEN
 62
     7
 10
225.678540478393
 20
-523.336278501121
 40
2.5
  1
〃
  0
TEXT
  8
SAISEN
 62
     7
 10
269.74764878875
 20
-522.762416215334
 40
2.5
  1
オーダーサッシにベース一式取付け
  0
TEXT
  8
SAISEN
 62
     7
 10
269.747675745438
 20
-545.032269413911
 40
2.5
  1
限られたスペースで間口を広く使いたい場合に最適（見込１００×見付２００）
 41
0.85
  0
TEXT
  8
SAISEN
 62
     7
 10
234.2096324645
 20
-530.280930003244
 40
2.5
  1
（変芯吊）
 41
0.95
  0
TEXT
  8
SAISEN
 62
     7
 10
234.349769750706
 20
-533.995582302566
 40
2.5
  1
（中芯吊）
 41
0.95
  0
TEXT
  8
SAISEN
 62
     7
 10
207.442367241124
 20
-545.08480600116
 40
2.5
  1
フラットバー式 納り図 ２重引戸
 41
0.88
  0
TEXT
  8
SAISEN
 62
     7
 10
254.128166922462
 20
-534.06132685567
 40
2.5
  1
ＢＣ
  0
TEXT
  8
SAISEN
 62
     7
 10
254.028166922462
 20
-545.085767755362
 40
2.5
  1
ＣＮ
  0
TEXT
  8
SAISEN
 62
     7
 10
254.128166922462
 20
-530.37264230803
 40
2.5
  1
ＢＣ
  0
TEXT
  8
SAISEN
 62
     7
 10
321.145410391665
 20
-533.984804327578
 40
2.5
  1
（強化ガラス用・框ドア用）
  7
スタイル2
 72
     2
 11
357.728743724998
 21
-533.984804327578
  0
TEXT
  8
SAISEN
 62
     7
 10
254.092452636748
 20
-526.643893006426
 40
2.5
  1
ＨＢ
  0
TEXT
  8
SAISEN
 62
     7
 10
234.349769750706
 20
-537.800169057686
 40
2.5
  1
（中芯吊）
 41
0.95
  0
TEXT
  8
SAISEN
 62
     7
 10
254.128166922462
 20
-537.63410919583
 40
2.5
  1
ＤＣ
  0
TEXT
  8
SAISEN
 62
     7
 10
220.392609136818
 20
-549.018219670952
 40
2.5
  1
〃
  0
TEXT
  8
SAISEN
 62
     7
 10
254.028166922462
 20
-548.799741190235
 40
2.5
  1
ＣＮ
  0
TEXT
  8
SAISEN
 62
     7
 10
269.650979061405
 20
-548.746242848784
 40
2.5
  1
ＬＩＸＩＬ様　フレアス
  0
TEXT
  8
SAISEN
 62
     7
 10
254.028166922462
 20
-563.473968121103
 40
2.5
  1
ＣＮ
  0
TEXT
  8
SAISEN
 62
     7
 10
269.650979061405
 20
-563.420469779653
 40
2.5
  1
昭和フロント様　ＦＡ１２０
  0
TEXT
  8
SAISEN
 62
     7
 10
298.806285865613
 20
-526.824521511352
 40
2.5
  1
〃
  0
TEXT
  8
SAISEN
 62
     7
 10
366.231073558206
 20
-522.859996585848
 40
2.5
  1
4
  0
TEXT
  8
SAISEN
 62
     7
 10
366.231073558206
 20
-526.559996585848
 40
2.5
  1
2
  0
TEXT
  8
SAISEN
 62
     7
 10
366.231073558206
 20
-530.259996585848
 40
2.5
  1
5
  0
TEXT
  8
SAISEN
 62
     7
 10
366.231073558206
 20
-533.959996585848
 40
2.5
  1
4
  0
TEXT
  8
SAISEN
 62
     7
 10
366.231073558206
 20
-537.659996585848
 40
2.5
  1
2
  0
TEXT
  8
SAISEN
 62
     7
 10
298.806285865613
 20
-530.524521511352
 40
2.5
  1
〃
  0
TEXT
  8
SAISEN
 62
     7
 10
298.806285865613
 20
-534.224521511352
 40
2.5
  1
〃
  0
TEXT
  8
SAISEN
 62
     7
 10
298.806285865613
 20
-537.924521511352
 40
2.5
  1
〃
  0
TEXT
  8
SAISEN
 62
     7
 10
269.74764878875
 20
-541.415831629349
 40
2.5
  1
オーダーサッシにベース一式取付け、重量ドア用
  0
TEXT
  8
SAISEN
 62
     7
 10
254.078166922462
 20
-541.4193299708
 40
2.5
  1
ＢＧ
  0
TEXT
  8
SAISEN
 62
     7
 10
366.231073558206
 20
-541.359996585848
 40
2.5
  1
3
  0
TEXT
  8
SAISEN
 62
     7
 10
366.231073558206
 20
-545.059996585848
 40
2.5
  1
4
  0
TEXT
  8
SAISEN
 62
     7
 10
366.231073558206
 20
-548.759996585848
 40
2.5
  1
2
  0
TEXT
  8
SAISEN
 62
     7
 10
366.674295919108
 20
-552.359996585848
 40
2.5
  1
1
  0
TEXT
  8
SAISEN
 62
     7
 10
366.231073558206
 20
-563.559996585848
 40
2.5
  1
2
  0
TEXT
  8
SAISEN
 62
     7
 10
366.231073558206
 20
-567.259996585848
 40
2.5
  1
2
  0
TEXT
  8
SAISEN
 62
     7
 10
220.392609136818
 20
-552.718219670952
 40
2.5
  1
〃
  0
TEXT
  8
SAISEN
 62
     7
 10
207.377257747409
 20
-530.265080458024
 40
2.5
  1
フラットバー式　納り図
 41
0.85
  0
TEXT
  8
SAISEN
 62
     7
 10
220.392609136818
 20
-534.218219670952
 40
2.5
  1
〃
  0
TEXT
  8
SAISEN
 62
     7
 10
207.377257747409
 20
-537.665080458024
 40
2.5
  1
フラットバー式　納り図
 41
0.85
  0
TEXT
  8
SAISEN
 62
     7
 10
220.392609136818
 20
-541.618219670952
 40
2.5
  1
〃
  0
TEXT
  8
SAISEN
 62
     7
 10
254.028166922462
 20
-552.499741190235
 40
2.5
  1
ＣＮ
  0
TEXT
  8
SAISEN
 62
     7
 10
269.650979061405
 20
-552.446242848784
 40
2.5
  1
ＬＩＸＩＬ様　テクスライト
  0
TEXT
  8
SAISEN
 62
     7
 10
254.028166922462
 20
-556.199741190235
 40
2.5
  1
ＣＮ
  0
TEXT
  8
SAISEN
 62
     7
 10
269.650979061405
 20
-556.146242848784
 40
2.5
  1
ＹＫＫ ＡＰ様　
  0
TEXT
  8
SAISEN
 62
     7
 10
293.005523552331
 20
-556.139174312126
 40
2.5
  1
EXIMA 51e
 41
0.95
  0
TEXT
  8
SAISEN
 62
     7
 10
314.804574955674
 20
-556.139188082636
 40
2.5
  1
ＲＣ枠①
 41
0.95
  0
TEXT
  8
SAISEN
 62
     7
 10
254.028166922462
 20
-559.899741190235
 40
2.5
  1
ＣＮ
  0
TEXT
  8
SAISEN
 62
     7
 10
269.650979061405
 20
-559.846242848784
 40
2.5
  1
ＹＫＫ ＡＰ様　
  0
TEXT
  8
SAISEN
 62
     7
 10
293.005523552331
 20
-559.839174312126
 40
2.5
  1
EXIMA 51e
 41
0.95
  0
TEXT
  8
SAISEN
 62
     7
 10
314.804574955674
 20
-559.839188082636
 40
2.5
  1
ＲＣ枠②
 41
0.95
  0
TEXT
  8
SAISEN
 62
     7
 10
366.674295919108
 20
-556.059996585848
 40
2.5
  1
1
  0
TEXT
  8
SAISEN
 62
     7
 10
220.392609136818
 20
-556.418219670952
 40
2.5
  1
〃
  0
TEXT
  8
SAISEN
 62
     7
 10
220.392609136818
 20
-560.118219670952
 40
2.5
  1
〃
  0
TEXT
  8
SAISEN
 62
     7
 10
220.392609136818
 20
-563.818219670952
 40
2.5
  1
〃
  0
TEXT
  8
SAISEN
 62
     7
 10
366.674295919108
 20
-559.759996585848
 40
2.5
  1
1
  0
TEXT
  8
SAISEN
 62
     7
 10
254.028166922462
 20
-567.173968121103
 40
2.5
  1
ＣＮ
  0
TEXT
  8
SAISEN
 62
     7
 10
269.650979061405
 20
-567.120469779653
 40
2.5
  1
昭和フロント様　ＮＬ４００
  0
TEXT
  8
SAISEN
 62
     7
 10
220.392609136818
 20
-567.518219670952
 40
2.5
  1
〃
  0
TEXT
  8
SAISEN
 62
     7
 10
253.978166922462
 20
-570.982432174264
 40
2.5
  1
ＢＷ
  0
TEXT
  8
SAISEN
 62
     7
 10
270.040928552037
 20
-571.005401013633
 40
2.5
  1
オーダーサッシにベース一式取付け   （見込１３０×見付２５０）
  0
TEXT
  8
SAISEN
 62
     7
 10
366.231073558206
 20
-570.959996585848
 40
2.5
  1
2
  0
TEXT
  8
SAISEN
 62
     7
 10
366.231073558206
 20
-574.659996585848
 40
2.5
  1
5
  0
TEXT
  8
SAISEN
 62
     7
 10
366.231073558206
 20
-578.359996585848
 40
2.5
  1
3
  0
TEXT
  8
SAISEN
 62
     7
 10
366.231073558206
 20
-582.059996585848
 40
2.5
  1
3
  0
TEXT
  8
SAISEN
 62
     7
 10
366.231073558206
 20
-593.159996585848
 40
2.5
  1
6
  0
TEXT
  8
SAISEN
 62
     7
 10
366.231073558206
 20
-596.859996585848
 40
2.5
  1
5
  0
TEXT
  8
SAISEN
 62
     7
 10
366.231073558206
 20
-600.559996585848
 40
2.5
  1
5
  0
TEXT
  8
SAISEN
 62
     7
 10
366.231073558206
 20
-604.259996585849
 40
2.5
  1
5
  0
TEXT
  8
SAISEN
 62
     7
 10
366.231073558206
 20
-607.959996585849
 40
2.5
  1
3
  0
TEXT
  8
SAISEN
 62
     7
 10
366.231073558206
 20
-611.659996585849
 40
2.5
  1
5
  0
TEXT
  8
SAISEN
 62
     7
 10
366.231073558206
 20
-615.359996585849
 40
2.5
  1
5
  0
TEXT
  8
SAISEN
 62
     7
 10
366.231073558206
 20
-619.059996585849
 40
2.5
  1
3
  0
TEXT
  8
SAISEN
 62
     7
 10
366.231073558206
 20
-622.759996585849
 40
2.5
  1
3
  0
TEXT
  8
SAISEN
 62
     7
 10
220.392609136818
 20
-571.218219670952
 40
2.5
  1
〃
  0
TEXT
  8
SAISEN
 62
     7
 10
269.747675745438
 20
-574.655401013634
 40
2.5
  1
フラットバー式 主要部品配置図（立体図）
  0
TEXT
  8
SAISEN
 62
     7
 10
250.25959549389
 20
-574.66277250964
 40
2.5
  1
ＨＬ－３５
  0
TEXT
  8
SAISEN
 62
     7
 10
207.377257747409
 20
-574.565080458024
 40
2.5
  1
フラットバー式　納り図
  0
TEXT
  8
SAISEN
 62
     7
 10
269.747675745438
 20
-578.476829585062
 40
2.5
  1
片引ドアのフラットバー基準ピッチ図
  0
TEXT
  8
SAISEN
 62
     7
 10
269.587223113205
 20
-582.269686727919
 40
2.5
  1
引分ドアのフラットバー基準ピッチ図
  0
TEXT
  8
SAISEN
 62
     7
 10
220.392609136818
 20
-578.261472056805
 40
2.5
  1
〃 （ＦＣ）（ＦＤ）
  0
TEXT
  8
SAISEN
 62
     7
 10
220.392609136818
 20
-582.161472056805
 40
2.5
  1
〃 （ＦＣ）（ＦＤ）
  0
TEXT
  8
SAISEN
 62
     7
 10
248.742452636748
 20
-582.225786924757
 40
2.5
  1
ＨＬ－３５、４５
 41
0.8
  0
TEXT
  8
SAISEN
 62
     7
 10
248.742452636748
 20
-578.325786924757
 40
2.5
  1
ＨＬ－３５、４５
 41
0.8
  0
TEXT
  8
SAISEN
 62
     7
 10
250.561946947357
 20
-585.82318506937
 40
2.5
  1
ＣＮ・ＢＷ
  0
TEXT
  8
SAISEN
 62
     7
 10
269.747675745438
 20
-585.876829585062
 40
2.5
  1
片引ドアのフラットバー基準ピッチ図
  0
TEXT
  8
SAISEN
 62
     7
 10
269.587223113205
 20
-589.569686727919
 40
2.5
  1
引分ドアのフラットバー基準ピッチ図
  0
TEXT
  8
SAISEN
 62
     7
 10
250.561946947357
 20
-589.62318506937
 40
2.5
  1
ＣＮ・ＢＷ
  0
TEXT
  8
SAISEN
 62
     7
 10
207.639924273438
 20
-585.775974961941
 40
2.5
  1
フラットバー式 納り図 ２重引戸
 41
0.88
  0
TEXT
  8
SAISEN
 62
     7
 10
220.392609136818
 20
-589.718219670952
 40
2.5
  1
〃
  0
TEXT
  8
SAISEN
 62
     7
 10
269.448867798819
 20
-593.198258156491
 40
2.5
  1
オーダーサッシの出入口に
  0
TEXT
  8
SAISEN
 62
     7
 10
269.448867798819
 20
-600.541688495978
 40
2.5
  1
オーダーサッシ、重量ドアで頻度の多い出入口に
  0
TEXT
  8
SAISEN
 62
     7
 10
220.392609136818
 20
-596.929587138146
 40
2.5
  1
〃 （ＦＣ中芯吊）
  0
TEXT
  8
SAISEN
 62
     7
 10
220.392609136818
 20
-593.118614913948
 40
2.5
  1
〃 （ＦＣ変芯吊）
  0
TEXT
  8
SAISEN
 62
     7
 10
220.392609136818
 20
-600.761930614109
 40
2.5
  1
〃 （ＦＤ変芯吊）
  0
TEXT
  8
SAISEN
 62
     7
 10
220.392609136818
 20
-608.044560688388
 40
2.5
  1
〃 （ＦＤ）
  0
TEXT
  8
SAISEN
 62
     7
 10
250.25959549389
 20
-593.16487908336
 40
2.5
  1
ＨＬ－３５
  0
TEXT
  8
SAISEN
 62
     7
 10
250.259567798819
 20
-600.608194783521
 40
2.5
  1
ＨＬ－４５
  0
TEXT
  8
SAISEN
 62
     7
 10
311.724043073182
 20
-596.923573414637
 40
2.5
  1
　　　 （強化ガラス用・框ドア用）
  7
スタイル2
  0
TEXT
  8
SAISEN
 62
     7
 10
220.392609136818
 20
-604.33004569545
 40
2.5
  1
〃 （ＦＤ中芯吊）
  0
TEXT
  8
SAISEN
 62
     7
 10
270.668507570343
 20
-597.273938482933
 40
2.5
  1
                      〃            
 41
0.85
  0
TEXT
  8
SAISEN
 62
     7
 10
250.25959549389
 20
-596.86487908336
 40
2.5
  1
ＨＬ－３５
  0
TEXT
  8
SAISEN
 62
     7
 10
250.259567798819
 20
-604.308194783521
 40
2.5
  1
ＨＬ－４５
  0
TEXT
  8
SAISEN
 62
     7
 10
250.259567798819
 20
-608.008194783521
 40
2.5
  1
ＨＬ－４５
  0
TEXT
  8
SAISEN
 62
     7
 10
270.668507570343
 20
-604.673938482934
 40
2.5
  1
                      〃            
 41
0.85
  0
TEXT
  8
SAISEN
 62
     7
 10
269.74764878875
 20
-607.936769284183
 40
2.5
  1
変芯吊ドア厚５５mm、中芯吊ドア厚５２mm
  0
TEXT
  8
SAISEN
 62
     7
 10
269.17874878875
 20
-619.107808672012
 40
2.5
  1
Ｒ１２００の場合のフラットバー基準ピッチ図
  0
TEXT
  8
SAISEN
 62
     7
 10
269.74764878875
 20
-611.655401013634
 40
2.5
  1
エントランスを豪華に、気品あるハイグレードなイメージ（標準曲）
 41
0.98
  0
TEXT
  8
SAISEN
 62
     7
 10
208.12661180334
 20
-611.607937600882
 40
2.5
  1
円     形     ド     ア
 41
1.05
  0
TEXT
  8
SAISEN
 62
     7
 10
226.37360719491
 20
-615.836278501122
 40
2.5
  1
〃
  0
TEXT
  8
SAISEN
 62
     7
 10
254.680376496122
 20
-611.76487908336
 40
2.5
  1
ＤＲ
  0
TEXT
  8
SAISEN
 62
     7
 10
270.967288560275
 20
-615.613747699966
 40
2.5
  1
                      〃
 41
0.85
  0
TEXT
  8
SAISEN
 62
     7
 10
310.422701023083
 20
-615.351846753203
 40
2.5
  1
　                     （逆  曲）
  0
TEXT
  8
SAISEN
 62
     7
 10
269.17874878875
 20
-622.757820117439
 40
2.5
  1
Ｒ１５００の場合のフラットバー基準ピッチ図
  0
TEXT
  8
SAISEN
 62
     7
 10
254.680376496122
 20
-615.46487908336
 40
2.5
  1
ＤＲ
  0
TEXT
  8
SAISEN
 62
     7
 10
254.680376496122
 20
-619.16487908336
 40
2.5
  1
ＤＲ
  0
TEXT
  8
SAISEN
 62
     7
 10
254.680376496122
 20
-622.86487908336
 40
2.5
  1
ＤＲ
  0
TEXT
  8
SAISEN
 62
     7
 10
226.37360719491
 20
-619.536278501122
 40
2.5
  1
〃
  0
TEXT
  8
SAISEN
 62
     7
 10
226.373607194909
 20
-623.236278501122
 40
2.5
  1
〃
  0
TEXT
  8
SAISEN
 62
     7
 10
366.674295919108
 20
-585.659996585848
 40
2.5
  1
1
  0
TEXT
  8
SAISEN
 62
     7
 10
366.674295919108
 20
-589.359996585848
 40
2.5
  1
1
  0
TEXT
  8
SAISEN
 62
     7
 10
269.74764878875
 20
-666.934456061781
 40
2.5
  1
吊元金具、ローラースペーサー
  0
TEXT
  8
SAISEN
 62
     7
 10
208.134353724073
 20
-670.594983004229
 40
2.5
  1
各種オートロック仕様・接続例
  0
TEXT
  8
SAISEN
 62
     7
 10
208.277777540339
 20
-644.743536606809
 40
2.5
  1
検知スイッチの種類及び特長
  0
TEXT
  8
SAISEN
 62
     7
 10
269.74764878875
 20
-670.473128252702
 40
2.5
  1
自動ドアと連動して建物の重要部を守ります
  0
TEXT
  8
SAISEN
 62
     7
 10
269.74764878875
 20
-644.698258156491
 40
2.5
  1
取付図例と特長一覧表
  0
TEXT
  8
SAISEN
 62
     7
 10
208.134353724073
 20
-650.237498610948
 40
2.5
  1
三角ステッカー・戸袋注意シール
  0
TEXT
  8
SAISEN
 62
     7
 10
366.227135666946
 20
-644.663851684418
 40
2.5
  1
4
  0
TEXT
  8
SAISEN
 62
     7
 10
208.134353724073
 20
-681.648036223609
 40
2.5
  1
手動ドアストップ装置・後付式ＢＣ納り例
  0
TEXT
  8
SAISEN
 62
     7
 10
208.134353724073
 20
-685.30607544013
 40
2.5
  1
手動ドアストップ装置搭載機種
  0
TEXT
  8
SAISEN
 62
     7
 10
269.74764878875
 20
-685.537557879718
 40
2.5
  1
                  〃
 41
0.85
  0
TEXT
  8
SAISEN
 62
     7
 10
269.74764878875
 20
-681.726181472082
 40
2.5
  1
手動ドアで全開保持を要する出入口に
  0
TEXT
  8
SAISEN
 62
     7
 10
208.134353724073
 20
-674.287588046961
 40
2.5
  1
AC100V出力非常電源装置BU-21
  0
TEXT
  8
SAISEN
 62
     7
 10
269.74764878875
 20
-674.331167469223
 40
2.5
  1
業界最長３時間以上のバックアップが可能です
 41
0.94
  0
TEXT
  8
SAISEN
 62
     7
 10
366.227135666946
 20
-650.022793930699
 40
2.5
  1
3
  0
TEXT
  8
SAISEN
 62
     7
 10
366.227135666946
 20
-657.418737971235
 40
2.5
  1
5
  0
TEXT
  8
SAISEN
 62
     7
 10
366.227135666946
 20
-663.163851684418
 40
2.5
  1
4
  0
TEXT
  8
SAISEN
 62
     7
 10
366.227135666946
 20
-666.863851684418
 40
2.5
  1
4
  0
TEXT
  8
SAISEN
 62
     7
 10
366.227135666946
 20
-670.563851684418
 40
2.5
  1
4
  0
TEXT
  8
SAISEN
 62
     7
 10
366.749932200232
 20
-674.263851684418
 40
2.5
  1
1
  0
TEXT
  8
SAISEN
 62
     7
 10
366.749932200232
 20
-677.963851684419
 40
2.5
  1
1
  0
TEXT
  8
SAISEN
 62
     7
 10
366.227135666946
 20
-681.663851684418
 40
2.5
  1
2
  0
TEXT
  8
SAISEN
 62
     7
 10
269.748867798819
 20
-659.498258156491
 40
2.5
  1
ドア軌道上の人や障害物を検知し、エンジンへ起動信号を出力します
 41
0.95
  0
TEXT
  8
SAISEN
 62
     7
 10
207.689513460575
 20
-659.492753947979
 40
2.5
  1
ド ア サ イ ド ビ ー ム
  0
TEXT
  8
SAISEN
 62
     7
 10
207.960997739669
 20
-655.635611090836
 40
2.5
  1
ワイヤレスタッチスイッチ
  0
TEXT
  8
SAISEN
 62
     7
 10
269.748867798819
 20
-655.726829585063
 40
2.5
  1
配線不要のワイヤレス式タッチスイッチ
  0
TEXT
  8
SAISEN
 62
     7
 10
269.74764878875
 20
-663.129014462047
 40
2.5
  1
フロアガイド、振れ止め
  0
TEXT
  8
SAISEN
 62
     7
 10
207.939734249446
 20
-663.161306468498
 40
2.5
  1
自  動  ド  ア  パ  ー  ツ
  0
TEXT
  8
SAISEN
 62
     7
 10
226.872388184841
 20
-667.136278501122
 40
2.5
  1
〃
  0
TEXT
  8
SAISEN
 62
     7
 10
208.134353724073
 20
-677.987588046961
 40
2.5
  1
AC100V出力非常電源装置BU-31
  0
LINE
  8
罫線
 62
     7
 10
388.856152293552
 20
-685.86277250964
 11
205.856152293552
 21
-685.86277250964
  0
TEXT
  8
SAISEN
 62
     7
 10
173.818059312699
 20
-530.355924694468
 40
2.5
  1
A - 
  0
TEXT
  8
SAISEN
 62
     7
 10
173.818059312699
 20
-534.055924694468
 40
2.5
  1
A - 
  0
TEXT
  8
SAISEN
 62
     7
 10
173.818059312699
 20
-537.755924694468
 40
2.5
  1
A - 
  0
TEXT
  8
SAISEN
 62
     7
 10
173.818059312699
 20
-541.455924694468
 40
2.5
  1
A - 
  0
TEXT
  8
SAISEN
 62
     7
 10
173.818059312699
 20
-545.155924694468
 40
2.5
  1
A - 
  0
TEXT
  8
SAISEN
 62
     7
 10
173.818059312699
 20
-548.855924694468
 40
2.5
  1
A - 
  0
TEXT
  8
SAISEN
 62
     7
 10
173.818059312699
 20
-552.555924694468
 40
2.5
  1
A - 
  0
TEXT
  8
SAISEN
 62
     7
 10
173.818059312699
 20
-556.255924694468
 40
2.5
  1
A - 
  0
TEXT
  8
SAISEN
 62
     7
 10
173.818059312699
 20
-559.955924694468
 40
2.5
  1
A - 
  0
TEXT
  8
SAISEN
 62
     7
 10
173.818059312699
 20
-563.655924694468
 40
2.5
  1
A - 
  0
TEXT
  8
SAISEN
 62
     7
 10
173.818059312699
 20
-567.355924694468
 40
2.5
  1
A - 
  0
TEXT
  8
SAISEN
 62
     7
 10
173.818059312699
 20
-571.055924694468
 40
2.5
  1
A - 
  0
TEXT
  8
SAISEN
 62
     7
 10
173.818059312699
 20
-574.755924694468
 40
2.5
  1
A - 
  0
TEXT
  8
SAISEN
 62
     7
 10
173.818059312699
 20
-578.455924694469
 40
2.5
  1
A - 
  0
TEXT
  8
SAISEN
 62
     7
 10
173.818059312699
 20
-582.155924694469
 40
2.5
  1
A - 
  0
TEXT
  8
SAISEN
 62
     7
 10
173.818059312699
 20
-585.855924694469
 40
2.5
  1
A - 
  0
TEXT
  8
SAISEN
 62
     7
 10
173.818059312699
 20
-589.555924694469
 40
2.5
  1
A - 
  0
TEXT
  8
SAISEN
 62
     7
 10
173.818059312699
 20
-593.255924694469
 40
2.5
  1
A - 
  0
TEXT
  8
SAISEN
 62
     7
 10
173.818059312699
 20
-596.955924694469
 40
2.5
  1
A - 
  0
TEXT
  8
SAISEN
 62
     7
 10
173.818059312699
 20
-600.655924694469
 40
2.5
  1
A - 
  0
TEXT
  8
SAISEN
 62
     7
 10
173.818059312699
 20
-604.355924694469
 40
2.5
  1
A - 
  0
TEXT
  8
SAISEN
 62
     7
 10
173.818059312699
 20
-608.055924694469
 40
2.5
  1
A - 
  0
TEXT
  8
SAISEN
 62
     7
 10
173.818059312699
 20
-611.755924694469
 40
2.5
  1
A - 
  0
TEXT
  8
SAISEN
 62
     7
 10
173.818059312699
 20
-615.455924694469
 40
2.5
  1
A - 
  0
TEXT
  8
SAISEN
 62
     7
 10
173.818059312699
 20
-619.155924694469
 40
2.5
  1
A - 
  0
TEXT
  8
SAISEN
 62
     7
 10
173.818059312699
 20
-622.855924694469
 40
2.5
  1
A - 
  0
TEXT
  8
SAISEN
 62
     7
 10
173.818059312699
 20
-626.555924694469
 40
2.5
  1
A - 
  0
TEXT
  8
SAISEN
 62
     7
 10
173.818059312699
 20
-630.255924694469
 40
2.5
  1
A - 
  0
TEXT
  8
SAISEN
 62
     7
 10
173.818059312699
 20
-633.955924694469
 40
2.5
  1
A - 
  0
TEXT
  8
SAISEN
 62
     7
 10
173.818059312699
 20
-637.655924694469
 40
2.5
  1
A - 
  0
TEXT
  8
SAISEN
 62
     7
 10
173.818059312699
 20
-641.355924694469
 40
2.5
  1
A - 
  0
TEXT
  8
SAISEN
 62
     7
 10
173.818059312699
 20
-645.055924694469
 40
2.5
  1
A - 
  0
TEXT
  8
SAISEN
 62
     7
 10
173.818059312699
 20
-648.755924694469
 40
2.5
  1
A - 
  0
TEXT
  8
SAISEN
 62
     7
 10
173.818059312699
 20
-652.455924694469
 40
2.5
  1
A - 
  0
TEXT
  8
SAISEN
 62
     7
 10
173.818059312699
 20
-656.155924694469
 40
2.5
  1
A - 
  0
TEXT
  8
SAISEN
 62
     7
 10
173.818059312699
 20
-659.855924694469
 40
2.5
  1
A - 
  0
TEXT
  8
SAISEN
 62
     7
 10
173.818059312699
 20
-663.555924694469
 40
2.5
  1
A - 
  0
TEXT
  8
SAISEN
 62
     7
 10
173.818059312699
 20
-667.255924694469
 40
2.5
  1
A - 
  0
TEXT
  8
SAISEN
 62
     7
 10
173.818059312699
 20
-670.955924694469
 40
2.5
  1
A - 
  0
TEXT
  8
SAISEN
 62
     7
 10
173.818059312699
 20
-674.655924694469
 40
2.5
  1
A - 
  0
TEXT
  8
SAISEN
 62
     7
 10
173.818059312699
 20
-678.35592469447
 40
2.5
  1
A - 
  0
TEXT
  8
SAISEN
 62
     7
 10
173.818059312699
 20
-699.921195299528
 40
2.5
  1
B - 
  0
TEXT
  8
SAISEN
 62
     7
 10
184.459474320721
 20
-699.921195299528
 40
2.5
  1
1
 41
0.9
  0
TEXT
  8
SAISEN
 62
     7
 10
183.842916517274
 20
-703.621195299528
 40
2.5
  1
2
 41
0.9
  0
TEXT
  8
SAISEN
 62
     7
 10
183.842916517274
 20
-707.321195299528
 40
2.5
  1
3
 41
0.9
  0
TEXT
  8
SAISEN
 62
     7
 10
183.842916517274
 20
-711.021195299529
 40
2.5
  1
4
 41
0.9
  0
TEXT
  8
SAISEN
 62
     7
 10
183.842916517274
 20
-714.721195299528
 40
2.5
  1
5
 41
0.9
  0
TEXT
  8
SAISEN
 62
     7
 10
183.842916517274
 20
-718.421195299529
 40
2.5
  1
6
 41
0.9
  0
TEXT
  8
SAISEN
 62
     7
 10
183.842916517274
 20
-722.121195299528
 40
2.5
  1
7
 41
0.9
  0
TEXT
  8
SAISEN
 62
     7
 10
183.842916517274
 20
-725.821195299529
 40
2.5
  1
8
 41
0.9
  0
TEXT
  8
SAISEN
 62
     7
 10
183.842916517274
 20
-729.521195299529
 40
2.5
  1
9
 41
0.9
  0
TEXT
  8
SAISEN
 62
     7
 10
182.95927284692
 20
-733.221195299529
 40
2.5
  1
10
 41
1.1
  0
TEXT
  8
SAISEN
 62
     7
 10
183.020435419094
 20
-736.921195299529
 40
2.5
  1
11
 41
1.2
  0
TEXT
  8
SAISEN
 62
     7
 10
183.020435419094
 20
-740.621195299529
 40
2.5
  1
12
 41
0.9
  0
TEXT
  8
SAISEN
 62
     7
 10
183.020435419094
 20
-744.321195299529
 40
2.5
  1
13
 41
0.9
  0
TEXT
  8
SAISEN
 62
     7
 10
374.674211606251
 20
-493.355924694468
 40
2.5
  1
C - 
  0
TEXT
  8
SAISEN
 62
     7
 10
173.818059312699
 20
-703.621195299528
 40
2.5
  1
B - 
  0
TEXT
  8
SAISEN
 62
     7
 10
173.818059312699
 20
-707.321195299528
 40
2.5
  1
B - 
  0
TEXT
  8
SAISEN
 62
     7
 10
173.818059312699
 20
-711.021195299528
 40
2.5
  1
B - 
  0
TEXT
  8
SAISEN
 62
     7
 10
173.818059312699
 20
-714.721195299528
 40
2.5
  1
B - 
  0
TEXT
  8
SAISEN
 62
     7
 10
173.818059312699
 20
-718.421195299528
 40
2.5
  1
B - 
  0
TEXT
  8
SAISEN
 62
     7
 10
173.818059312699
 20
-722.121195299528
 40
2.5
  1
B - 
  0
TEXT
  8
SAISEN
 62
     7
 10
173.818059312699
 20
-725.821195299529
 40
2.5
  1
B - 
  0
TEXT
  8
SAISEN
 62
     7
 10
173.818059312699
 20
-729.521195299529
 40
2.5
  1
B - 
  0
TEXT
  8
SAISEN
 62
     7
 10
173.818059312699
 20
-733.221195299529
 40
2.5
  1
B - 
  0
TEXT
  8
SAISEN
 62
     7
 10
173.818059312699
 20
-733.221195299529
 40
2.5
  1
B - 
  0
TEXT
  8
SAISEN
 62
     7
 10
173.818059312699
 20
-736.921195299529
 40
2.5
  1
B - 
  0
TEXT
  8
SAISEN
 62
     7
 10
173.818059312699
 20
-740.621195299529
 40
2.5
  1
B - 
  0
TEXT
  8
SAISEN
 62
     7
 10
173.818059312699
 20
-744.321195299529
 40
2.5
  1
B - 
  0
TEXT
  8
SAISEN
 62
     7
 10
374.674211606251
 20
-497.055924694468
 40
2.5
  1
C - 
  0
TEXT
  8
SAISEN
 62
     7
 10
374.674211606251
 20
-500.755924694468
 40
2.5
  1
C - 
  0
TEXT
  8
SAISEN
 62
     7
 10
374.674211606251
 20
-504.455924694468
 40
2.5
  1
C - 
  0
TEXT
  8
SAISEN
 62
     7
 10
374.674211606251
 20
-508.155924694468
 40
2.5
  1
C - 
  0
TEXT
  8
SAISEN
 62
     7
 10
374.674211606251
 20
-511.855924694468
 40
2.5
  1
C - 
  0
TEXT
  8
SAISEN
 62
     7
 10
374.674211606251
 20
-515.555924694468
 40
2.5
  1
C - 
  0
TEXT
  8
SAISEN
 62
     7
 10
374.674211606251
 20
-519.255924694468
 40
2.5
  1
C - 
  0
TEXT
  8
SAISEN
 62
     7
 10
374.674211606251
 20
-522.955924694468
 40
2.5
  1
C - 
  0
TEXT
  8
SAISEN
 62
     7
 10
374.674211606251
 20
-526.655924694468
 40
2.5
  1
C - 
  0
TEXT
  8
SAISEN
 62
     7
 10
374.674211606251
 20
-530.355924694468
 40
2.5
  1
C - 
  0
TEXT
  8
SAISEN
 62
     7
 10
374.674211606251
 20
-534.055924694468
 40
2.5
  1
C - 
  0
TEXT
  8
SAISEN
 62
     7
 10
374.674211606251
 20
-537.755924694468
 40
2.5
  1
C - 
  0
TEXT
  8
SAISEN
 62
     7
 10
374.674211606251
 20
-541.455924694468
 40
2.5
  1
C - 
  0
TEXT
  8
SAISEN
 62
     7
 10
374.674211606251
 20
-545.155924694468
 40
2.5
  1
C - 
  0
TEXT
  8
SAISEN
 62
     7
 10
374.674211606251
 20
-548.855924694468
 40
2.5
  1
C - 
  0
TEXT
  8
SAISEN
 62
     7
 10
374.674211606251
 20
-552.555924694468
 40
2.5
  1
C - 
  0
TEXT
  8
SAISEN
 62
     7
 10
374.674211606251
 20
-556.255924694468
 40
2.5
  1
C - 
  0
TEXT
  8
SAISEN
 62
     7
 10
374.674211606251
 20
-559.955924694468
 40
2.5
  1
C - 
  0
TEXT
  8
SAISEN
 62
     7
 10
374.674211606251
 20
-563.655924694468
 40
2.5
  1
C - 
  0
TEXT
  8
SAISEN
 62
     7
 10
374.674211606251
 20
-567.355924694468
 40
2.5
  1
C - 
  0
TEXT
  8
SAISEN
 62
     7
 10
374.674211606251
 20
-571.055924694468
 40
2.5
  1
C - 
  0
TEXT
  8
SAISEN
 62
     7
 10
374.674211606251
 20
-574.755924694468
 40
2.5
  1
C - 
  0
TEXT
  8
SAISEN
 62
     7
 10
374.674211606251
 20
-578.455924694469
 40
2.5
  1
C - 
  0
TEXT
  8
SAISEN
 62
     7
 10
374.674211606251
 20
-582.155924694469
 40
2.5
  1
C - 
  0
TEXT
  8
SAISEN
 62
     7
 10
374.674211606251
 20
-585.855924694469
 40
2.5
  1
C - 
  0
TEXT
  8
SAISEN
 62
     7
 10
374.674211606251
 20
-589.555924694469
 40
2.5
  1
C - 
  0
TEXT
  8
SAISEN
 62
     7
 10
374.674211606251
 20
-593.255924694469
 40
2.5
  1
C - 
  0
TEXT
  8
SAISEN
 62
     7
 10
374.674211606251
 20
-596.955924694469
 40
2.5
  1
C - 
  0
TEXT
  8
SAISEN
 62
     7
 10
374.674211606251
 20
-600.655924694469
 40
2.5
  1
C - 
  0
TEXT
  8
SAISEN
 62
     7
 10
374.674211606251
 20
-604.355924694469
 40
2.5
  1
C - 
  0
TEXT
  8
SAISEN
 62
     7
 10
374.674211606251
 20
-608.055924694469
 40
2.5
  1
C - 
  0
TEXT
  8
SAISEN
 62
     7
 10
374.674211606251
 20
-611.755924694469
 40
2.5
  1
C - 
  0
TEXT
  8
SAISEN
 62
     7
 10
374.674211606251
 20
-615.455924694469
 40
2.5
  1
C - 
  0
TEXT
  8
SAISEN
 62
     7
 10
374.674211606251
 20
-619.155924694469
 40
2.5
  1
C - 
  0
TEXT
  8
SAISEN
 62
     7
 10
374.674211606251
 20
-622.855924694469
 40
2.5
  1
C - 
  0
TEXT
  8
SAISEN
 62
     7
 10
374.676032164101
 20
-644.755924694469
 40
2.5
  1
D - 
  0
TEXT
  8
SAISEN
 62
     7
 10
385.100438523644
 20
-644.755924694469
 40
2.5
  1
1
 41
0.9
  0
TEXT
  8
SAISEN
 62
     7
 10
384.700889368675
 20
-650.11486694075
 40
2.5
  1
2
 41
0.9
  0
TEXT
  8
SAISEN
 62
     7
 10
384.700889368675
 20
-657.510810981286
 40
2.5
  1
3
 41
0.9
  0
TEXT
  8
SAISEN
 62
     7
 10
384.700889368675
 20
-663.255924694469
 40
2.5
  1
4
 41
0.9
  0
TEXT
  8
SAISEN
 62
     7
 10
384.700889368675
 20
-666.955924694469
 40
2.5
  1
5
 41
0.9
  0
TEXT
  8
SAISEN
 62
     7
 10
384.700889368675
 20
-670.655924694469
 40
2.5
  1
6
 41
0.9
  0
TEXT
  8
SAISEN
 62
     7
 10
384.700889368675
 20
-674.355924694469
 40
2.5
  1
7
 41
0.9
  0
TEXT
  8
SAISEN
 62
     7
 10
384.700889368675
 20
-678.055924694469
 40
2.5
  1
8
 41
0.9
  0
TEXT
  8
SAISEN
 62
     7
 10
383.878408270496
 20
-685.455924694469
 40
2.5
  1
10
 41
1.2
  0
TEXT
  8
SAISEN
 62
     7
 10
374.676032164101
 20
-650.114866940749
 40
2.5
  1
D - 
  0
TEXT
  8
SAISEN
 62
     7
 10
374.676032164101
 20
-657.510810981286
 40
2.5
  1
D - 
  0
TEXT
  8
SAISEN
 62
     7
 10
374.676032164101
 20
-663.255924694469
 40
2.5
  1
D - 
  0
TEXT
  8
SAISEN
 62
     7
 10
374.676032164101
 20
-666.955924694469
 40
2.5
  1
D - 
  0
TEXT
  8
SAISEN
 62
     7
 10
374.676032164101
 20
-670.655924694469
 40
2.5
  1
D - 
  0
TEXT
  8
SAISEN
 62
     7
 10
374.676032164101
 20
-670.655924694469
 40
2.5
  1
D - 
  0
TEXT
  8
SAISEN
 62
     7
 10
374.676032164101
 20
-674.355924694469
 40
2.5
  1
D - 
  0
TEXT
  8
SAISEN
 62
     7
 10
374.676032164101
 20
-678.055924694469
 40
2.5
  1
D - 
  0
TEXT
  8
SAISEN
 62
     7
 10
374.676032164101
 20
-681.755924694469
 40
2.5
  1
D - 
  0
TEXT
  8
SAISEN
 62
     7
 10
374.676032164101
 20
-685.455924694469
 40
2.5
  1
D - 
  0
TEXT
  8
SAISEN
 62
     7
 10
384.700889368675
 20
-681.755924694469
 40
2.5
  1
9
 41
0.9
  0
TEXT
  8
SAISEN
 62
     7
 10
366.227135666946
 20
-685.363851684418
 40
2.5
  1
2
  0
LINE
  8
罫線
 62
     7
 10
67.0
 20
-689.6280431147
 11
67.0
 21
-744.7280431147
  0
LINE
  8
罫線
 62
     7
 10
160.507281118808
 20
-689.6280431147
 11
160.507281118808
 21
-744.7280431147
  0
LINE
  8
罫線
 62
     7
 10
172.0
 20
-689.6280431147
 11
172.0
 21
-744.7280431147
  0
LINE
  8
罫線
 62
     7
 10
188.0
 20
-689.6280431147
 11
188.0
 21
-744.7280431147
  0
TEXT
  8
SAISEN
 10
386.163619044085
 20
-482.306032725369
 40
1.5
  1
22
  0
TEXT
  8
SAISEN
 62
     7
 10
7.484235059707
 20
-699.892975539841
 40
2.5
  1
後   　　   付  　 　  式
 41
1.02
  0
TEXT
  8
SAISEN
 62
     7
 10
165.476646151034
 20
-530.359996585848
 40
2.5
  1
2
  0
TEXT
  8
SAISEN
 62
     7
 10
42.115400404103
 20
-556.535611090835
 40
2.5
  1
〃
  0
TEXT
  8
SAISEN
 62
     7
 10
141.310791862653
 20
-556.507103965447
 40
2.5
  1
〃
  0
TEXT
  8
SAISEN
 62
     7
 10
141.310791862653
 20
-608.407103965448
 40
2.5
  1
〃
  0
TEXT
  8
SAISEN
 62
     7
 10
269.74764878875
 20
-678.031167469223
 40
2.5
  1
業界最長３時間以上のバックアップが可能です。コンパクトになりました
 41
0.94
  0
TEXT
  8
SAISEN
 62
     7
 10
383.815425140471
 20
-526.655924694468
 40
2.5
  1
10
 41
1.1
  0
TEXT
  8
SAISEN
 62
     7
 10
383.876587712646
 20
-530.355924694468
 40
2.5
  1
11
 41
1.2
  0
TEXT
  8
SAISEN
 62
     7
 10
383.876587712646
 20
-534.055924694468
 40
2.5
  1
12
 41
0.9
  0
TEXT
  8
SAISEN
 62
     7
 10
383.876587712646
 20
-537.755924694468
 40
2.5
  1
13
 41
0.9
  0
TEXT
  8
SAISEN
 62
     7
 10
383.876587712646
 20
-541.455924694468
 40
2.5
  1
14
 41
0.9
  0
TEXT
  8
SAISEN
 62
     7
 10
383.876587712646
 20
-545.155924694468
 40
2.5
  1
15
 41
0.9
  0
TEXT
  8
SAISEN
 62
     7
 10
383.876587712646
 20
-548.855924694468
 40
2.5
  1
16
 41
0.9
  0
TEXT
  8
SAISEN
 62
     7
 10
383.876587712646
 20
-552.555924694468
 40
2.5
  1
17
 41
0.9
  0
TEXT
  8
SAISEN
 62
     7
 10
383.876587712646
 20
-556.255924694468
 40
2.5
  1
18
 41
0.9
  0
TEXT
  8
SAISEN
 62
     7
 10
383.876587712646
 20
-559.955924694468
 40
2.5
  1
19
 41
0.9
  0
TEXT
  8
SAISEN
 62
     7
 10
383.264368292163
 20
-563.655924694468
 40
2.5
  1
20
  0
TEXT
  8
SAISEN
 62
     7
 10
383.264368292163
 20
-567.355924694468
 40
2.5
  1
21
 41
1.1
  0
TEXT
  8
SAISEN
 62
     7
 10
383.264368292163
 20
-571.055924694468
 40
2.5
  1
22
 41
0.9
  0
TEXT
  8
SAISEN
 62
     7
 10
383.264368292163
 20
-574.755924694468
 40
2.5
  1
23
 41
0.9
  0
TEXT
  8
SAISEN
 62
     7
 10
383.264368292163
 20
-578.455924694469
 40
2.5
  1
24
 41
0.9
  0
TEXT
  8
SAISEN
 62
     7
 10
383.264368292163
 20
-582.155924694468
 40
2.5
  1
25
 41
0.9
  0
TEXT
  8
SAISEN
 62
     7
 10
383.264368292163
 20
-585.855924694469
 40
2.5
  1
26
 41
0.9
  0
TEXT
  8
SAISEN
 62
     7
 10
383.264368292163
 20
-589.555924694469
 40
2.5
  1
27
 41
0.9
  0
TEXT
  8
SAISEN
 62
     7
 10
383.264368292163
 20
-593.255924694469
 40
2.5
  1
28
 41
0.9
  0
TEXT
  8
SAISEN
 62
     7
 10
383.264368292163
 20
-596.955924694469
 40
2.5
  1
29
 41
0.9
  0
TEXT
  8
SAISEN
 62
     7
 10
383.264368292163
 20
-600.655924694469
 40
2.5
  1
30
  0
TEXT
  8
SAISEN
 62
     7
 10
383.264435370348
 20
-604.355924694469
 40
2.5
  1
31
 41
1.1
  0
TEXT
  8
SAISEN
 62
     7
 10
383.264435370348
 20
-608.055924694469
 40
2.5
  1
32
 41
0.9
  0
TEXT
  8
SAISEN
 62
     7
 10
383.264435370348
 20
-611.755924694469
 40
2.5
  1
33
 41
0.9
  0
TEXT
  8
SAISEN
 62
     7
 10
383.264435370348
 20
-615.455924694469
 40
2.5
  1
34
 41
0.9
  0
TEXT
  8
SAISEN
 62
     7
 10
383.264435370348
 20
-619.155924694469
 40
2.5
  1
35
 41
0.9
  0
TEXT
  8
SAISEN
 62
     7
 10
383.264435370348
 20
-622.855924694469
 40
2.5
  1
36
 41
0.9
  0
LINE
  8
SAISEN
 62
     7
 10
388.856152293552
 20
-682.162772509641
 11
205.856152293552
 21
-682.162772509641
  0
INSERT
  8
説明文
  2
*X0
 10
0.0
 20
0.0
 30
0.0
  0
LINE
  8
罫線
 10
205.854933283483
 20
-731.474402810819
 11
388.854933283483
 21
-731.474402810819
  0
LINE
  8
罫線
 10
205.854933283483
 20
-703.474402810819
 11
388.854933283483
 21
-703.474402810819
  0
LINE
  8
罫線
 10
205.854933283483
 20
-710.474402810819
 11
388.854933283483
 21
-710.474402810819
  0
LINE
  8
罫線
 10
205.854933283483
 20
-717.474402810819
 11
388.854933283483
 21
-717.474402810819
  0
LINE
  8
罫線
 10
205.854933283483
 20
-724.474402810819
 11
388.854933283483
 21
-724.474402810819
  0
ENDSEC
  0
EOF
