  0
SECTION
  2
HEADER
  9
$ACADVER
  1
AC1004
  9
$INSBASE
 10
0.0
 20
0.0
  9
$EXTMIN
 10
153.801451014105
 20
-722.424435843449
  9
$EXTMAX
 10
957.801451014105
 20
-146.424435843449
  9
$LIMMIN
 10
163.801451014105
 20
50.184625803102
  9
$LIMMAX
 10
784.141711672392
 20
553.689124679604
  9
$ORTHOMODE
 70
     1
  9
$REGENMODE
 70
     1
  9
$FILLMODE
 70
     1
  9
$QTEXTMODE
 70
     0
  9
$DRAGMODE
 70
     2
  9
$LTSCALE
 40
0.03
  9
$OSMODE
 70
  1719
  9
$ATTMODE
 70
     1
  9
$TEXTSIZE
 40
3.5
  9
$TRACEWID
 40
0.05
  9
$TEXTSTYLE
  7
STANDARD
  9
$CLAYER
  8
SAKUZU2
  9
$CELTYPE
  6
BYLAYER
  9
$CECOLOR
 62
   256
  9
$DIMSCALE
 40
1.8
  9
$DIMASZ
 40
2.5
  9
$DIMEXO
 40
2.0
  9
$DIMDLI
 40
10.0
  9
$DIMRND
 40
0.0
  9
$DIMDLE
 40
0.0
  9
$DIMEXE
 40
1.25
  9
$DIMTP
 40
0.0
  9
$DIMTM
 40
0.0
  9
$DIMTXT
 40
2.5
  9
$DIMCEN
 40
-0.5
  9
$DIMTSZ
 40
0.0
  9
$DIMTOL
 70
     0
  9
$DIMLIM
 70
     0
  9
$DIMTIH
 70
     0
  9
$DIMTOH
 70
     0
  9
$DIMSE1
 70
     0
  9
$DIMSE2
 70
     0
  9
$DIMTAD
 70
     1
  9
$DIMZIN
 70
     8
  9
$DIMBLK
  1

  9
$DIMASO
 70
     1
  9
$DIMSHO
 70
     1
  9
$DIMPOST
  1

  9
$DIMAPOST
  1

  9
$DIMALT
 70
     0
  9
$DIMALTD
 70
     2
  9
$DIMALTF
 40
0.03937
  9
$DIMLFAC
 40
1.0
  9
$DIMTOFL
 70
     1
  9
$DIMTVP
 40
0.0
  9
$DIMTIX
 70
     0
  9
$DIMSOXD
 70
     0
  9
$DIMSAH
 70
     0
  9
$DIMBLK1
  1

  9
$DIMBLK2
  1

  9
$LUNITS
 70
     2
  9
$LUPREC
 70
     4
  9
$SKETCHINC
 40
0.1
  9
$FILLETRAD
 40
5.0
  9
$AUNITS
 70
     0
  9
$AUPREC
 70
     0
  9
$MENU
  1
acad
  9
$ELEVATION
 40
0.0
  9
$THICKNESS
 40
0.0
  9
$LIMCHECK
 70
     0
  9
$CHAMFERA
 40
0.0
  9
$CHAMFERB
 40
0.0
  9
$SKPOLY
 70
     0
  9
$TDCREATE
 40
2451128.577223611
  9
$TDUPDATE
 40
2459746.441256134
  9
$TDINDWG
 40
2.1500053704
  9
$TDUSRTIMER
 40
2.1500053704
  9
$USRTIMER
 70
     1
  9
$ANGBASE
 50
0.0
  9
$ANGDIR
 70
     0
  9
$PDMODE
 70
     3
  9
$PDSIZE
 40
-100.0
  9
$PLINEWID
 40
0.0
  9
$COORDS
 70
     1
  9
$SPLFRAME
 70
     0
  9
$SPLINETYPE
 70
     6
  9
$SPLINESEGS
 70
     8
  9
$ATTDIA
 70
     0
  9
$ATTREQ
 70
     1
  9
$SURFTAB1
 70
     6
  9
$SURFTAB2
 70
     6
  9
$SURFTYPE
 70
     6
  9
$SURFU
 70
     6
  9
$SURFV
 70
     6
  9
$UCSNAME
  2

  9
$UCSORG
 10
163.8014510141052
 20
50.18462580310177
 30
0.0
  9
$UCSXDIR
 10
1.0
 20
0.0
 30
0.0
  9
$UCSYDIR
 10
0.0
 20
1.0
 30
0.0
  9
$USERI1
 70
     0
  9
$USERI2
 70
     0
  9
$USERI3
 70
     0
  9
$USERI4
 70
     0
  9
$USERI5
 70
     0
  9
$USERR1
 40
0.0
  9
$USERR2
 40
0.0
  9
$USERR3
 40
0.0
  9
$USERR4
 40
0.0
  9
$USERR5
 40
0.0
  9
$WORLDVIEW
 70
     1
  0
ENDSEC
  0
SECTION
  2
TABLES
  0
TABLE
  2
LTYPE
 70
     6
  0
LTYPE
  2
CONTINUOUS
 70
     0
  3
Solid line
 72
    65
 73
     0
 40
0.0
  0
LTYPE
  2
CENTER2
 70
     0
  3
___ _ ___ _ ___ _ ___ _ ___ _ ___ _ ___ _ ___ _
 72
    65
 73
     4
 40
1.125
 49
0.75
 49
-0.125
 49
0.125
 49
-0.125
  0
LTYPE
  2
DASHEDX2
 70
     0
  3
Dashed (2x) ____  ____  ____  ____  ____  ___
 72
    65
 73
     2
 40
38.1
 49
25.4
 49
-12.7
  0
LTYPE
  2
PHANTOM
 70
     0
  3
Phantom ______  __  __  ______  __  __  ______
 72
    65
 73
     6
 40
63.5
 49
31.75
 49
-6.35
 49
6.35
 49
-6.35
 49
6.35
 49
-6.35
  0
LTYPE
  2
CENTER
 70
     0
  3
Center ____ _ ____ _ ____ _ ____ _ ____ _ ____
 72
    65
 73
     4
 40
50.8
 49
31.75
 49
-6.35
 49
6.35
 49
-6.35
  0
LTYPE
  2
PHANTOM2
 70
     0
  3
Phantom (.5x) ___ _ _ ___ _ _ ___ _ _ ___ _ _
 72
    65
 73
     6
 40
31.75
 49
15.875
 49
-3.175
 49
3.175
 49
-3.175
 49
3.175
 49
-3.175
  0
ENDTAB
  0
TABLE
  2
LAYER
 70
    13
  0
LAYER
  2
0
 70
     0
 62
     7
  6
CONTINUOUS
  0
LAYER
  2
TYUSINSEN
 70
     0
 62
     5
  6
CENTER2
  0
LAYER
  2
SAKUZU1
 70
     0
 62
     7
  6
CONTINUOUS
  0
LAYER
  2
DEFPOINTS
 70
     0
 62
     7
  6
CONTINUOUS
  0
LAYER
  2
SUNPOUSEN
 70
     0
 62
     6
  6
CONTINUOUS
  0
LAYER
  2
HASEN
 70
     0
 62
     3
  6
DASHEDX2
  0
LAYER
  2
説明文
 70
     0
 62
     7
  6
CONTINUOUS
  0
LAYER
  2
図面枠
 70
     0
 62
     7
  6
CONTINUOUS
  0
LAYER
  2
SAKUZU2
 70
     0
 62
     1
  6
CONTINUOUS
  0
LAYER
  2
SAKUZU3
 70
     0
 62
     7
  6
CONTINUOUS
  0
LAYER
  2
MOJI
 70
     0
 62
     7
  6
CONTINUOUS
  0
LAYER
  2
HATCH
 70
     0
 62
     7
  6
CONTINUOUS
  0
LAYER
  2
PT
 70
     0
 62
     4
  6
CONTINUOUS
  0
ENDTAB
  0
TABLE
  2
STYLE
 70
     2
  0
STYLE
  2
STANDARD
 70
     0
 40
0.0
 41
1.0
 50
0.0
 71
     0
 42
3.5
  3
txt.shx
  4
KELF1-K.shx
  0
STYLE
  2
ＭＳゴシック
 70
     0
 40
0.0
 41
1.0
 50
0.0
 71
     0
 42
2.5
  3
msgothic.ttc
  4

  0
ENDTAB
  0
TABLE
  2
VIEW
 70
     0
  0
ENDTAB
  0
ENDSEC
  0
SECTION
  2
BLOCKS
  0
BLOCK
  8
0
  2
_DOTSMALL
 70
     0
 10
0.0
 20
0.0
  0
POLYLINE
  8
0
  6
BYBLOCK
 62
     0
 66
     1
 70
     1
 40
0.5
 41
0.5
  0
VERTEX
  8
0
  6
BYBLOCK
 62
     0
 10
-0.0625
 20
0.0
 42
1.0
  0
VERTEX
  8
0
  6
BYBLOCK
 62
     0
 10
0.0625
 20
0.0
 42
1.0
  0
SEQEND
  8
0
  6
BYBLOCK
 62
     0
  0
ENDBLK
  8
0
  0
BLOCK
  8
0
  2
*X3
 70
     1
 10
0.0
 20
0.0
  0
LINE
  8
SAKUZU2
  6
CONTINUOUS
 62
     7
 10
272.444941270418
 20
-242.973220423143
 11
275.799691270418
 21
-242.973220423143
  0
LINE
  8
SAKUZU2
  6
CONTINUOUS
 62
     7
 10
272.444941270418
 20
-244.507012123143
 11
275.799691270418
 21
-244.507012123143
  0
LINE
  8
SAKUZU2
  6
CONTINUOUS
 62
     7
 10
272.444941270418
 20
-246.040803823143
 11
275.799691270418
 21
-246.040803823143
  0
LINE
  8
SAKUZU2
  6
CONTINUOUS
 62
     7
 10
275.799691270418
 20
-242.973220423143
 11
294.85998465606
 21
-242.973220423143
  0
LINE
  8
SAKUZU2
  6
CONTINUOUS
 62
     7
 10
275.799691270418
 20
-244.507012123143
 11
293.787784826987
 21
-244.507012123143
  0
LINE
  8
SAKUZU2
  6
CONTINUOUS
 62
     7
 10
275.799691270418
 20
-246.040803823143
 11
292.715584997914
 21
-246.040803823143
  0
LINE
  8
SAKUZU2
  6
CONTINUOUS
 62
     7
 10
318.335443042689
 20
-242.973220423143
 11
330.415021270418
 21
-242.973220423143
  0
LINE
  8
SAKUZU2
  6
CONTINUOUS
 62
     7
 10
317.315969116378
 20
-244.507012123143
 11
330.415021270418
 21
-244.507012123143
  0
LINE
  8
SAKUZU2
  6
CONTINUOUS
 62
     7
 10
316.296495190067
 20
-246.040803823143
 11
330.415021270418
 21
-246.040803823143
  0
LINE
  8
SAKUZU2
  6
CONTINUOUS
 62
     7
 10
330.415021270418
 20
-242.973220423143
 11
333.769771270418
 21
-242.973220423143
  0
LINE
  8
SAKUZU2
  6
CONTINUOUS
 62
     7
 10
330.415021270418
 20
-244.507012123143
 11
333.769771270418
 21
-244.507012123143
  0
LINE
  8
SAKUZU2
  6
CONTINUOUS
 62
     7
 10
330.415021270418
 20
-246.040803823143
 11
333.769771270418
 21
-246.040803823143
  0
LINE
  8
SAKUZU2
  6
CONTINUOUS
 62
     7
 10
333.769771270418
 20
-242.973220423143
 11
357.476299312432
 21
-242.973220423143
  0
LINE
  8
SAKUZU2
  6
CONTINUOUS
 62
     7
 10
333.769771270418
 20
-244.507012123143
 11
356.481590395746
 21
-244.507012123143
  0
LINE
  8
SAKUZU2
  6
CONTINUOUS
 62
     7
 10
333.769771270418
 20
-246.040803823143
 11
355.48688147906
 21
-246.040803823143
  0
LINE
  8
SAKUZU2
  6
CONTINUOUS
 62
     7
 10
375.104784972512
 20
-242.973220423143
 11
391.270186270418
 21
-242.973220423143
  0
LINE
  8
SAKUZU2
  6
CONTINUOUS
 62
     7
 10
374.110076055825
 20
-244.507012123143
 11
391.270186270418
 21
-244.507012123143
  0
LINE
  8
SAKUZU2
  6
CONTINUOUS
 62
     7
 10
373.115367139139
 20
-246.040803823143
 11
391.270186270418
 21
-246.040803823143
  0
ENDBLK
  8
0
  0
BLOCK
  8
0
  2
*X4
 70
     1
 10
0.0
 20
0.0
  0
TEXT
  8
SAKUZU1
  6
CONTINUOUS
 10
274.271308811384
 20
-583.075839756281
 40
4.83084
  1
DW＝
  0
TEXT
  8
SAKUZU1
  6
CONTINUOUS
 10
274.271308811384
 20
-589.796401306361
 40
3.50000155008
  1
　　　
  0
ENDBLK
  8
0
  0
BLOCK
  8
0
  2
*X5
 70
     1
 10
0.0
 20
0.0
  0
TEXT
  8
SAKUZU1
  6
CONTINUOUS
 10
290.193389805439
 20
-579.171284400567
 40
4.83084
  1
　　＋100－3
  0
TEXT
  8
SAKUZU1
  6
CONTINUOUS
 10
290.193389805439
 20
-587.222684400567
 40
4.83084
  1
　　　 3
  0
ENDBLK
  8
0
  0
BLOCK
  8
0
  2
*X6
 70
     1
 10
0.0
 20
0.0
  0
TEXT
  8
SAKUZU1
  6
CONTINUOUS
 10
273.033167340557
 20
-610.054199643213
 40
4.83084
  1
例) エンジンの長さ( 　)が
  0
TEXT
  8
SAKUZU1
  6
CONTINUOUS
 10
273.189000888944
 20
-618.105599643213
 40
4.83084
  1
　　2603mm の場合
  0
ENDBLK
  8
0
  0
BLOCK
  8
0
  2
*X7
 70
     1
 10
0.0
 20
0.0
  0
TEXT
  8
SAKUZU1
  6
CONTINUOUS
 10
286.48764980685
 20
-630.026895969054
 40
4.83084
  1
DW＝
  0
TEXT
  8
SAKUZU1
  6
CONTINUOUS
 10
303.369617548786
 20
-630.026895969054
 40
3.5
  1
　
  0
TEXT
  8
SAKUZU1
  6
CONTINUOUS
 10
286.48764980685
 20
-636.747455969054
 40
3.5
  1
　　
  0
ENDBLK
  8
0
  0
BLOCK
  8
0
  2
*X8
 70
     1
 10
0.0
 20
0.0
  0
TEXT
  8
SAKUZU1
  6
CONTINUOUS
 10
669.148394209035
 20
-577.738733249678
 40
4.83084
  1
　　＋200－3
  0
TEXT
  8
SAKUZU1
  6
CONTINUOUS
 10
669.148394209035
 20
-585.790133249679
 40
4.83084
  1
　　　 6
  0
ENDBLK
  8
0
  0
BLOCK
  8
0
  2
*X9
 70
     1
 10
0.0
 20
0.0
  0
TEXT
  8
SAKUZU1
  6
CONTINUOUS
 10
653.039808333696
 20
-608.744961647401
 40
4.83084
  1
例) エンジンの長さ(　 )が
  0
TEXT
  8
SAKUZU1
  6
CONTINUOUS
 10
653.195641882083
 20
-616.796361647401
 40
4.83084
  1
　　 4603mm の場合
  0
ENDBLK
  8
0
  0
BLOCK
  8
0
  2
*X10
 70
     1
 10
0.0
 20
0.0
  0
TEXT
  8
SAKUZU1
  6
CONTINUOUS
 10
686.797470947075
 20
-625.009086232285
 40
4.83084
  1
4603＋200－3
  0
TEXT
  8
SAKUZU1
  6
CONTINUOUS
 10
686.797470947075
 20
-633.060486232285
 40
4.83084
  1
　　　6
  0
ENDBLK
  8
0
  0
BLOCK
  8
0
  2
*X11
 70
     1
 10
0.0
 20
0.0
  0
TEXT
  8
SAKUZU1
  6
CONTINUOUS
 10
667.49429079999
 20
-628.717657973242
 40
4.83084
  1
DW＝
  0
TEXT
  8
SAKUZU1
  6
CONTINUOUS
 10
684.376258541926
 20
-628.717657973242
 40
3.5
  1
　
  0
TEXT
  8
SAKUZU1
  6
CONTINUOUS
 10
667.49429079999
 20
-635.438217973242
 40
3.5
  1
　　
  0
ENDBLK
  8
0
  0
BLOCK
  8
0
  2
*X12
 70
     1
 10
0.0
 20
0.0
  0
TEXT
  8
SAKUZU1
  6
CONTINUOUS
 10
653.226313214981
 20
-581.643288605392
 40
4.83084
  1
DW＝
  0
TEXT
  8
SAKUZU1
  6
CONTINUOUS
 10
653.226313214981
 20
-588.363848605392
 40
3.5
  1
　　　
  0
ENDBLK
  8
0
  0
BLOCK
  8
0
  2
*X13
 70
     1
 10
0.0
 20
0.0
  0
TEXT
  8
SAKUZU1
  6
CONTINUOUS
 10
378.045082555965
 20
-579.171284400567
 40
4.83084
  1
　　＋100－3
  0
TEXT
  8
SAKUZU1
  6
CONTINUOUS
 10
378.045082555965
 20
-587.222684400567
 40
4.83084
  1
　　　 2
  0
ENDBLK
  8
0
  0
BLOCK
  8
0
  2
*X14
 70
     1
 10
0.0
 20
0.0
  0
TEXT
  8
SAKUZU1
  6
CONTINUOUS
 10
393.58142346045
 20
-626.318324228097
 40
4.83084
  1
1703＋100－3
  0
TEXT
  8
SAKUZU1
  6
CONTINUOUS
 10
393.58142346045
 20
-634.369724228097
 40
4.83084
  1
　　　2
  0
ENDBLK
  8
0
  0
BLOCK
  8
0
  2
*X15
 70
     1
 10
0.0
 20
0.0
  0
TEXT
  8
SAKUZU1
  6
CONTINUOUS
 10
360.884860091083
 20
-610.054199643213
 40
4.83084
  1
例) 開口幅(W)が
  0
TEXT
  8
SAKUZU1
  6
CONTINUOUS
 10
361.04069363947
 20
-618.105599643213
 40
4.83084
  1
　　1703mm の場合
  0
ENDBLK
  8
0
  0
BLOCK
  8
0
  2
*X16
 70
     1
 10
0.0
 20
0.0
  0
TEXT
  8
SAKUZU1
  6
CONTINUOUS
 10
374.339342557376
 20
-630.026895969054
 40
4.83084
  1
DW＝
  0
TEXT
  8
SAKUZU1
  6
CONTINUOUS
 10
391.221310299312
 20
-630.026895969054
 40
3.5
  1
　
  0
TEXT
  8
SAKUZU1
  6
CONTINUOUS
 10
374.339342557376
 20
-636.747455969054
 40
3.5
  1
　　
  0
ENDBLK
  8
0
  0
BLOCK
  8
0
  2
*X17
 70
     1
 10
0.0
 20
0.0
  0
TEXT
  8
SAKUZU1
  6
CONTINUOUS
 10
362.12300156191
 20
-583.075839756281
 40
4.83084
  1
DW＝
  0
TEXT
  8
SAKUZU1
  6
CONTINUOUS
 10
362.12300156191
 20
-589.796401306361
 40
3.50000155008
  1
　　　
  0
ENDBLK
  8
0
  0
BLOCK
  8
0
  2
*X18
 70
     1
 10
0.0
 20
0.0
  0
TEXT
  8
SAKUZU1
  6
CONTINUOUS
 10
773.973870404346
 20
-625.009086232285
 40
4.83084
  1
3003＋200－3
  0
TEXT
  8
SAKUZU1
  6
CONTINUOUS
 10
773.973870404346
 20
-633.060486232285
 40
4.83084
  1
　　　4
  0
ENDBLK
  8
0
  0
BLOCK
  8
0
  2
*X19
 70
     1
 10
0.0
 20
0.0
  0
TEXT
  8
SAKUZU1
  6
CONTINUOUS
 10
756.324793666306
 20
-577.738733249678
 40
4.83084
  1
　　＋200－3
  0
TEXT
  8
SAKUZU1
  6
CONTINUOUS
 10
756.324793666306
 20
-585.790133249679
 40
4.83084
  1
　　　 4
  0
ENDBLK
  8
0
  0
BLOCK
  8
0
  2
*X20
 70
     1
 10
0.0
 20
0.0
  0
TEXT
  8
SAKUZU1
  6
CONTINUOUS
 10
740.216207790967
 20
-608.744961647401
 40
4.83084
  1
例) 開口幅(W)が
  0
TEXT
  8
SAKUZU1
  6
CONTINUOUS
 10
740.372041339354
 20
-616.796361647401
 40
4.83084
  1
　　 3003mm の場合
  0
ENDBLK
  8
0
  0
BLOCK
  8
0
  2
*X21
 70
     1
 10
0.0
 20
0.0
  0
TEXT
  8
SAKUZU1
  6
CONTINUOUS
 10
754.670690257261
 20
-628.717657973242
 40
4.83084
  1
DW＝
  0
TEXT
  8
SAKUZU1
  6
CONTINUOUS
 10
771.552657999196
 20
-628.717657973242
 40
3.5
  1
　
  0
TEXT
  8
SAKUZU1
  6
CONTINUOUS
 10
754.670690257261
 20
-635.438217973242
 40
3.5
  1
　　
  0
ENDBLK
  8
0
  0
BLOCK
  8
0
  2
*X22
 70
     1
 10
0.0
 20
0.0
  0
TEXT
  8
SAKUZU1
  6
CONTINUOUS
 10
740.402712672251
 20
-581.643288605392
 40
4.83084
  1
DW＝
  0
TEXT
  8
SAKUZU1
  6
CONTINUOUS
 10
740.402712672251
 20
-588.363848605392
 40
3.5
  1
　　　
  0
ENDBLK
  8
0
  0
BLOCK
  8
0
  2
*U23
 70
     1
 10
0.0
 20
0.0
  0
SOLID
  8
SUNPOUSEN
  6
CONTINUOUS
 62
     7
 10
387.566039063147
 20
-231.783159519822
 11
387.409300113277
 21
-231.404758221292
 12
387.566039063147
 22
-231.026356922763
 13
387.566039063147
 23
-231.026356922763
  0
SOLID
  8
SUNPOUSEN
  6
CONTINUOUS
 62
     7
 10
387.566039063147
 20
-231.783159519822
 11
387.566039063147
 21
-231.026356922763
 12
387.944440361677
 22
-231.939898469692
 13
387.944440361677
 23
-231.939898469692
  0
SOLID
  8
SUNPOUSEN
  6
CONTINUOUS
 62
     7
 10
387.944440361677
 20
-231.939898469692
 11
387.566039063147
 21
-231.026356922763
 12
387.944440361677
 22
-230.869617972892
 13
387.944440361677
 23
-230.869617972892
  0
SOLID
  8
SUNPOUSEN
  6
CONTINUOUS
 62
     7
 10
387.944440361677
 20
-231.939898469692
 11
387.944440361677
 21
-230.869617972892
 12
388.322841660206
 22
-231.783159519822
 13
388.322841660206
 23
-231.783159519822
  0
SOLID
  8
SUNPOUSEN
  6
CONTINUOUS
 62
     7
 10
388.322841660206
 20
-231.783159519822
 11
387.944440361677
 21
-230.869617972892
 12
388.322841660206
 22
-231.026356922763
 13
388.322841660206
 23
-231.026356922763
  0
SOLID
  8
SUNPOUSEN
  6
CONTINUOUS
 62
     7
 10
388.322841660206
 20
-231.783159519822
 11
388.322841660206
 21
-231.026356922763
 12
388.479580610077
 22
-231.404758221292
 13
388.479580610077
 23
-231.404758221292
  0
ENDBLK
  8
0
  0
BLOCK
  8
0
  2
*U24
 70
     1
 10
0.0
 20
0.0
  0
SOLID
  8
SUNPOUSEN
  6
CONTINUOUS
 62
     7
 10
548.518095074152
 20
-231.78315951982
 11
548.361356124282
 21
-231.40475822129
 12
548.518095074152
 22
-231.026356922761
 13
548.518095074152
 23
-231.026356922761
  0
SOLID
  8
SUNPOUSEN
  6
CONTINUOUS
 62
     7
 10
548.518095074152
 20
-231.78315951982
 11
548.518095074152
 21
-231.026356922761
 12
548.896496372682
 22
-231.93989846969
 13
548.896496372682
 23
-231.93989846969
  0
SOLID
  8
SUNPOUSEN
  6
CONTINUOUS
 62
     7
 10
548.896496372682
 20
-231.93989846969
 11
548.518095074152
 21
-231.026356922761
 12
548.896496372682
 22
-230.86961797289
 13
548.896496372682
 23
-230.86961797289
  0
SOLID
  8
SUNPOUSEN
  6
CONTINUOUS
 62
     7
 10
548.896496372682
 20
-231.93989846969
 11
548.896496372682
 21
-230.86961797289
 12
549.274897671211
 22
-231.78315951982
 13
549.274897671211
 23
-231.78315951982
  0
SOLID
  8
SUNPOUSEN
  6
CONTINUOUS
 62
     7
 10
549.274897671211
 20
-231.78315951982
 11
548.896496372682
 21
-230.86961797289
 12
549.274897671211
 22
-231.026356922761
 13
549.274897671211
 23
-231.026356922761
  0
SOLID
  8
SUNPOUSEN
  6
CONTINUOUS
 62
     7
 10
549.274897671211
 20
-231.78315951982
 11
549.274897671211
 21
-231.026356922761
 12
549.431636621082
 22
-231.40475822129
 13
549.431636621082
 23
-231.40475822129
  0
ENDBLK
  8
0
  0
BLOCK
  8
0
  2
*U25
 70
     1
 10
0.0
 20
0.0
  0
SOLID
  8
MOJI
  6
CONTINUOUS
 62
     7
 10
892.266230351722
 20
-664.720655498417
 11
892.266230351722
 21
-664.51075961083
 12
892.33120485259
 22
-664.720655498417
 13
892.33120485259
 23
-664.720655498417
  0
SOLID
  8
MOJI
  6
CONTINUOUS
 62
     7
 10
892.33120485259
 20
-664.720655498417
 11
892.266230351722
 21
-664.51075961083
 12
892.33120485259
 22
-664.51075961083
 13
892.33120485259
 23
-664.51075961083
  0
SOLID
  8
MOJI
  6
CONTINUOUS
 62
     7
 10
892.33120485259
 20
-664.720655498417
 11
892.33120485259
 21
-664.51075961083
 12
892.584322908145
 22
-664.720655498417
 13
892.584322908145
 23
-664.720655498417
  0
SOLID
  8
MOJI
  6
CONTINUOUS
 62
     7
 10
892.584322908145
 20
-664.720655498417
 11
892.33120485259
 21
-664.51075961083
 12
892.584322908145
 22
-664.51075961083
 13
892.584322908145
 23
-664.51075961083
  0
SOLID
  8
MOJI
  6
CONTINUOUS
 62
     7
 10
892.33120485259
 20
-660.928545879276
 11
892.33120485259
 21
-660.718649991689
 12
892.584322908145
 22
-660.928545879276
 13
892.584322908145
 23
-660.928545879276
  0
SOLID
  8
MOJI
  6
CONTINUOUS
 62
     7
 10
892.584322908145
 20
-660.928545879276
 11
892.33120485259
 21
-660.718649991689
 12
892.584322908145
 22
-660.718649991689
 13
892.584322908145
 23
-660.718649991689
  0
SOLID
  8
MOJI
  6
CONTINUOUS
 62
     7
 10
892.584322908145
 20
-664.720655498417
 11
892.584322908145
 21
-664.51075961083
 12
892.938575186791
 22
-664.720655498417
 13
892.938575186791
 23
-664.720655498417
  0
SOLID
  8
MOJI
  6
CONTINUOUS
 62
     7
 10
892.938575186791
 20
-664.720655498417
 11
892.584322908145
 21
-664.51075961083
 12
892.938575186791
 22
-664.51075961083
 13
892.938575186791
 23
-664.51075961083
  0
SOLID
  8
MOJI
  6
CONTINUOUS
 62
     7
 10
892.584322908145
 20
-660.928545879276
 11
892.584322908145
 21
-660.718649991689
 12
892.938575186791
 22
-660.928545879276
 13
892.938575186791
 23
-660.928545879276
  0
SOLID
  8
MOJI
  6
CONTINUOUS
 62
     7
 10
892.938575186791
 20
-660.928545879276
 11
892.584322908145
 21
-660.718649991689
 12
892.938575186791
 22
-660.6766558474
 13
892.938575186791
 23
-660.6766558474
  0
SOLID
  8
MOJI
  6
CONTINUOUS
 62
     7
 10
892.938575186791
 20
-664.720655498417
 11
892.938575186791
 21
-664.51075961083
 12
892.989142298336
 22
-664.720655498417
 13
892.989142298336
 23
-664.720655498417
  0
SOLID
  8
MOJI
  6
CONTINUOUS
 62
     7
 10
892.989142298336
 20
-664.720655498417
 11
892.938575186791
 21
-664.51075961083
 12
892.989142298336
 22
-664.463970218067
 13
892.989142298336
 23
-664.463970218067
  0
SOLID
  8
MOJI
  6
CONTINUOUS
 62
     7
 10
892.938575186791
 20
-660.928545879276
 11
892.938575186791
 21
-660.6766558474
 12
892.989142298336
 22
-660.935890822853
 13
892.989142298336
 23
-660.935890822853
  0
SOLID
  8
MOJI
  6
CONTINUOUS
 62
     7
 10
892.989142298336
 20
-660.935890822853
 11
892.938575186791
 21
-660.6766558474
 12
892.989142298336
 22
-660.670661467952
 13
892.989142298336
 23
-660.670661467952
  0
SOLID
  8
MOJI
  6
CONTINUOUS
 62
     7
 10
892.989142298336
 20
-664.720655498417
 11
892.989142298336
 21
-664.463970218067
 12
893.010894631235
 22
-664.720655498417
 13
893.010894631235
 23
-664.720655498417
  0
SOLID
  8
MOJI
  6
CONTINUOUS
 62
     7
 10
893.010894631235
 20
-664.720655498417
 11
892.989142298336
 21
-664.463970218067
 12
893.010894631235
 22
-664.443842937382
 13
893.010894631235
 23
-664.443842937382
  0
SOLID
  8
MOJI
  6
CONTINUOUS
 62
     7
 10
892.989142298336
 20
-660.935890822853
 11
892.989142298336
 21
-660.670661467952
 12
893.010894631235
 22
-660.964902514187
 13
893.010894631235
 23
-660.964902514187
  0
SOLID
  8
MOJI
  6
CONTINUOUS
 62
     7
 10
893.010894631235
 20
-660.964902514187
 11
892.989142298336
 21
-660.670661467952
 12
893.010894631235
 22
-660.668082880144
 13
893.010894631235
 23
-660.668082880144
  0
SOLID
  8
MOJI
  6
CONTINUOUS
 62
     7
 10
893.010894631235
 20
-664.720655498417
 11
893.010894631235
 21
-664.443842937382
 12
893.227852964569
 22
-664.720655498417
 13
893.227852964569
 23
-664.720655498417
  0
SOLID
  8
MOJI
  6
CONTINUOUS
 62
     7
 10
893.227852964569
 20
-664.720655498417
 11
893.010894631235
 21
-664.443842937382
 12
893.227852964569
 22
-664.243092917037
 13
893.227852964569
 23
-664.243092917037
  0
SOLID
  8
MOJI
  6
CONTINUOUS
 62
     7
 10
893.010894631235
 20
-660.964902514187
 11
893.010894631235
 21
-660.668082880144
 12
893.227852964569
 22
-661.254265877106
 13
893.227852964569
 23
-661.254265877106
  0
SOLID
  8
MOJI
  6
CONTINUOUS
 62
     7
 10
893.227852964569
 20
-661.254265877106
 11
893.010894631235
 21
-660.668082880144
 12
893.227852964569
 22
-660.598974778704
 13
893.227852964569
 23
-660.598974778704
  0
SOLID
  8
MOJI
  6
CONTINUOUS
 62
     7
 10
893.227852964569
 20
-664.720655498417
 11
893.227852964569
 21
-660.598974778704
 12
893.488033465871
 22
-664.720655498417
 13
893.488033465871
 23
-664.720655498417
  0
SOLID
  8
MOJI
  6
CONTINUOUS
 62
     7
 10
893.488033465871
 20
-664.720655498417
 11
893.227852964569
 21
-660.598974778704
 12
893.488033465871
 22
-660.516099047679
 13
893.488033465871
 23
-660.516099047679
  0
SOLID
  8
MOJI
  6
CONTINUOUS
 62
     7
 10
893.488033465871
 20
-664.720655498417
 11
893.488033465871
 21
-660.516099047679
 12
893.61092002186
 22
-664.720655498417
 13
893.61092002186
 23
-664.720655498417
  0
SOLID
  8
MOJI
  6
CONTINUOUS
 62
     7
 10
893.61092002186
 20
-664.720655498417
 11
893.488033465871
 21
-660.516099047679
 12
893.61092002186
 22
-660.465390687219
 13
893.61092002186
 23
-660.465390687219
  0
SOLID
  8
MOJI
  6
CONTINUOUS
 62
     7
 10
893.61092002186
 20
-664.720655498417
 11
893.61092002186
 21
-660.465390687219
 12
893.675894522729
 22
-664.720655498417
 13
893.675894522729
 23
-664.720655498417
  0
SOLID
  8
MOJI
  6
CONTINUOUS
 62
     7
 10
893.675894522729
 20
-664.720655498417
 11
893.61092002186
 21
-660.465390687219
 12
893.675894522729
 22
-660.465390687219
 13
893.675894522729
 23
-660.465390687219
  0
SOLID
  8
MOJI
  6
CONTINUOUS
 62
     7
 10
893.675894522729
 20
-664.720655498417
 11
893.675894522729
 21
-664.221340584137
 12
893.748213967173
 22
-664.720655498417
 13
893.748213967173
 23
-664.720655498417
  0
SOLID
  8
MOJI
  6
CONTINUOUS
 62
     7
 10
893.748213967173
 20
-664.720655498417
 11
893.675894522729
 21
-664.221340584137
 12
893.748213967173
 22
-664.297631106841
 13
893.748213967173
 23
-664.297631106841
  0
SOLID
  8
MOJI
  6
CONTINUOUS
 62
     7
 10
893.675894522729
 20
-662.506155010136
 11
893.675894522729
 21
-661.898360929189
 12
893.748213967173
 22
-662.339763788347
 13
893.748213967173
 23
-662.339763788347
  0
SOLID
  8
MOJI
  6
CONTINUOUS
 62
     7
 10
893.748213967173
 20
-664.720655498417
 11
893.748213967173
 21
-664.297631106841
 12
893.943419967607
 22
-664.720655498417
 13
893.943419967607
 23
-664.720655498417
  0
SOLID
  8
MOJI
  6
CONTINUOUS
 62
     7
 10
893.943419967607
 20
-664.720655498417
 11
893.748213967173
 21
-664.297631106841
 12
893.943419967607
 22
-664.503555916169
 13
893.943419967607
 23
-664.503555916169
  0
SOLID
  8
MOJI
  6
CONTINUOUS
 62
     7
 10
893.943419967607
 20
-664.720655498417
 11
893.943419967607
 21
-664.503555916169
 12
893.965172300506
 22
-664.720655498417
 13
893.965172300506
 23
-664.720655498417
  0
SOLID
  8
MOJI
  6
CONTINUOUS
 62
     7
 10
893.965172300506
 20
-664.720655498417
 11
893.943419967607
 21
-664.503555916169
 12
893.965172300506
 22
-664.51075961083
 13
893.965172300506
 23
-664.51075961083
  0
SOLID
  8
MOJI
  6
CONTINUOUS
 62
     7
 10
893.965172300506
 20
-664.720655498417
 11
893.965172300506
 21
-664.51075961083
 12
894.644862079152
 22
-664.720655498417
 13
894.644862079152
 23
-664.720655498417
  0
SOLID
  8
MOJI
  6
CONTINUOUS
 62
     7
 10
894.644862079152
 20
-664.720655498417
 11
893.965172300506
 21
-664.51075961083
 12
894.644862079152
 22
-664.51075961083
 13
894.644862079152
 23
-664.51075961083
  0
ENDBLK
  8
0
  0
BLOCK
  8
0
  2
*U26
 70
     1
 10
0.0
 20
0.0
  0
SOLID
  8
MOJI
  6
CONTINUOUS
 62
     7
 10
894.695429190697
 20
-661.034266284382
 11
894.341176912051
 21
-661.029962600196
 12
894.695429190697
 22
-660.805518074372
 13
894.695429190697
 23
-660.805518074372
  0
SOLID
  8
MOJI
  6
CONTINUOUS
 62
     7
 10
894.695429190697
 20
-661.034266284382
 11
894.695429190697
 21
-660.805518074372
 12
894.93413985693
 22
-661.037166294858
 13
894.93413985693
 23
-661.037166294858
  0
SOLID
  8
MOJI
  6
CONTINUOUS
 62
     7
 10
894.93413985693
 20
-661.037166294858
 11
894.695429190697
 21
-660.805518074372
 12
894.93413985693
 22
-660.750368915945
 13
894.93413985693
 23
-660.750368915945
  0
SOLID
  8
MOJI
  6
CONTINUOUS
 62
     7
 10
894.93413985693
 20
-661.037166294858
 11
894.93413985693
 21
-660.750368915945
 12
895.071433802242
 22
-661.140304512817
 13
895.071433802242
 23
-661.140304512817
  0
SOLID
  8
MOJI
  6
CONTINUOUS
 62
     7
 10
895.071433802242
 20
-661.140304512817
 11
894.93413985693
 21
-660.750368915945
 12
895.071433802242
 22
-660.718649991689
 13
895.071433802242
 23
-660.718649991689
  0
SOLID
  8
MOJI
  6
CONTINUOUS
 62
     7
 10
895.071433802242
 20
-661.140304512817
 11
895.071433802242
 21
-660.718649991689
 12
895.122000913788
 22
-661.178291634247
 13
895.122000913788
 23
-661.178291634247
  0
SOLID
  8
MOJI
  6
CONTINUOUS
 62
     7
 10
895.122000913788
 20
-661.178291634247
 11
895.071433802242
 21
-660.718649991689
 12
895.122000913788
 22
-660.718649991689
 13
895.122000913788
 23
-660.718649991689
  0
SOLID
  8
MOJI
  6
CONTINUOUS
 62
     7
 10
895.122000913788
 20
-661.178291634247
 11
895.122000913788
 21
-660.718649991689
 12
895.223135136878
 22
-661.254265877106
 13
895.223135136878
 23
-661.254265877106
  0
SOLID
  8
MOJI
  6
CONTINUOUS
 62
     7
 10
895.223135136878
 20
-661.254265877106
 11
895.122000913788
 21
-660.718649991689
 12
895.223135136878
 22
-660.745972543895
 13
895.223135136878
 23
-660.745972543895
  0
SOLID
  8
MOJI
  6
CONTINUOUS
 62
     7
 10
895.223135136878
 20
-661.304832988651
 11
895.223135136878
 21
-660.745972543895
 12
895.512412914656
 22
-661.57264093136
 13
895.512412914656
 23
-661.57264093136
  0
SOLID
  8
MOJI
  6
CONTINUOUS
 62
     7
 10
895.512412914656
 20
-661.57264093136
 11
895.223135136878
 21
-660.745972543895
 12
895.512412914656
 22
-660.824124201601
 13
895.512412914656
 23
-660.824124201601
  0
SOLID
  8
MOJI
  6
CONTINUOUS
 62
     7
 10
895.512412914656
 20
-661.57264093136
 11
895.512412914656
 21
-660.824124201601
 12
895.562980026201
 22
-661.57264093136
 13
895.562980026201
 23
-661.57264093136
  0
SOLID
  8
MOJI
  6
CONTINUOUS
 62
     7
 10
895.562980026201
 20
-661.57264093136
 11
895.512412914656
 21
-660.824124201601
 12
895.562980026201
 22
-660.837785477704
 13
895.562980026201
 23
-660.837785477704
  0
SOLID
  8
MOJI
  6
CONTINUOUS
 62
     7
 10
895.562980026201
 20
-661.57264093136
 11
895.562980026201
 21
-660.837785477704
 12
895.577387415524
 22
-661.553425395541
 13
895.577387415524
 23
-661.553425395541
  0
SOLID
  8
MOJI
  6
CONTINUOUS
 62
     7
 10
895.577387415524
 20
-661.553425395541
 11
895.562980026201
 21
-660.837785477704
 12
895.577387415524
 22
-660.841677796594
 13
895.577387415524
 23
-660.841677796594
  0
SOLID
  8
MOJI
  6
CONTINUOUS
 62
     7
 10
895.577387415524
 20
-661.553425395541
 11
895.577387415524
 21
-660.841677796594
 12
895.671459192867
 22
-661.4279592499
 13
895.671459192867
 23
-661.4279592499
  0
SOLID
  8
MOJI
  6
CONTINUOUS
 62
     7
 10
895.671459192867
 20
-661.4279592499
 11
895.577387415524
 21
-660.841677796594
 12
895.671459192867
 22
-660.928545879276
 13
895.671459192867
 23
-660.928545879276
  0
SOLID
  8
MOJI
  6
CONTINUOUS
 62
     7
 10
895.671459192867
 20
-661.4279592499
 11
895.671459192867
 21
-660.928545879276
 12
895.801690692433
 22
-661.254265877106
 13
895.801690692433
 23
-661.254265877106
  0
ENDBLK
  8
0
  0
BLOCK
  8
0
  2
*U27
 70
     1
 10
0.0
 20
0.0
  0
SOLID
  8
MOJI
  6
CONTINUOUS
 62
     7
 10
893.748213967173
 20
-662.339763788347
 11
893.675894522729
 21
-661.898360929189
 12
893.748213967173
 22
-661.785769849666
 13
893.748213967173
 23
-661.785769849666
  0
SOLID
  8
MOJI
  6
CONTINUOUS
 62
     7
 10
893.748213967173
 20
-662.339763788347
 11
893.748213967173
 21
-661.785769849666
 12
894.001332022729
 22
-661.81323661009
 13
894.001332022729
 23
-661.81323661009
  0
SOLID
  8
MOJI
  6
CONTINUOUS
 62
     7
 10
894.001332022729
 20
-661.81323661009
 11
893.748213967173
 21
-661.785769849666
 12
894.001332022729
 22
-661.391701071334
 13
894.001332022729
 23
-661.391701071334
  0
SOLID
  8
MOJI
  6
CONTINUOUS
 62
     7
 10
894.001332022729
 20
-661.81323661009
 11
894.001332022729
 21
-661.391701071334
 12
894.023084355628
 22
-661.767988180708
 13
894.023084355628
 23
-661.767988180708
  0
SOLID
  8
MOJI
  6
CONTINUOUS
 62
     7
 10
894.023084355628
 20
-661.767988180708
 11
894.001332022729
 21
-661.391701071334
 12
894.023084355628
 22
-661.368547403605
 13
894.023084355628
 23
-661.368547403605
  0
SOLID
  8
MOJI
  6
CONTINUOUS
 62
     7
 10
894.023084355628
 20
-661.767988180708
 11
894.023084355628
 21
-661.368547403605
 12
894.319424579152
 22
-661.362745043773
 13
894.319424579152
 23
-661.362745043773
  0
SOLID
  8
MOJI
  6
CONTINUOUS
 62
     7
 10
894.319424579152
 20
-661.362745043773
 11
894.023084355628
 21
-661.368547403605
 12
894.319424579152
 22
-661.053116267925
 13
894.319424579152
 23
-661.053116267925
  0
SOLID
  8
MOJI
  6
CONTINUOUS
 62
     7
 10
894.319424579152
 20
-661.362745043773
 11
894.319424579152
 21
-661.053116267925
 12
894.341176912051
 22
-661.34470096572
 13
894.341176912051
 23
-661.34470096572
  0
SOLID
  8
MOJI
  6
CONTINUOUS
 62
     7
 10
894.341176912051
 20
-661.34470096572
 11
894.319424579152
 21
-661.053116267925
 12
894.341176912051
 22
-661.029962600196
 13
894.341176912051
 23
-661.029962600196
  0
SOLID
  8
MOJI
  6
CONTINUOUS
 62
     7
 10
894.341176912051
 20
-661.34470096572
 11
894.341176912051
 21
-661.029962600196
 12
894.616047300506
 22
-661.116689433964
 13
894.616047300506
 23
-661.116689433964
  0
SOLID
  8
MOJI
  6
CONTINUOUS
 62
     7
 10
894.616047300506
 20
-661.116689433964
 11
894.341176912051
 21
-661.029962600196
 12
894.616047300506
 22
-661.0333019022
 13
894.616047300506
 23
-661.0333019022
  0
SOLID
  8
MOJI
  6
CONTINUOUS
 62
     7
 10
894.616047300506
 20
-661.116689433964
 11
894.616047300506
 21
-661.0333019022
 12
894.93413985693
 22
-661.037166294858
 13
894.93413985693
 23
-661.037166294858
  0
ENDBLK
  8
0
  0
BLOCK
  8
0
  2
*U28
 70
     1
 10
0.0
 20
0.0
  0
SOLID
  8
MOJI
  6
CONTINUOUS
 62
     7
 10
889.815279179847
 20
-660.913297000604
 11
889.388707456756
 21
-660.885182462393
 12
889.815279179847
 22
-660.733198629927
 13
889.815279179847
 23
-660.733198629927
  0
SOLID
  8
MOJI
  6
CONTINUOUS
 62
     7
 10
889.815279179847
 20
-660.913297000604
 11
889.815279179847
 21
-660.733198629927
 12
890.046644902503
 22
-660.928545879276
 13
890.046644902503
 23
-660.928545879276
  0
SOLID
  8
MOJI
  6
CONTINUOUS
 62
     7
 10
890.046644902503
 20
-660.928545879276
 11
889.815279179847
 21
-660.733198629927
 12
890.046644902503
 22
-660.718649991689
 13
890.046644902503
 23
-660.718649991689
  0
SOLID
  8
MOJI
  6
CONTINUOUS
 62
     7
 10
890.046644902503
 20
-660.928545879276
 11
890.046644902503
 21
-660.718649991689
 12
890.25625829226
 22
-660.950298212176
 13
890.25625829226
 23
-660.950298212176
  0
SOLID
  8
MOJI
  6
CONTINUOUS
 62
     7
 10
890.25625829226
 20
-660.950298212176
 11
890.046644902503
 21
-660.718649991689
 12
890.25625829226
 22
-660.747766463748
 13
890.25625829226
 23
-660.747766463748
  0
SOLID
  8
MOJI
  6
CONTINUOUS
 62
     7
 10
890.25625829226
 20
-660.950298212176
 11
890.25625829226
 21
-660.747766463748
 12
890.516438793562
 22
-661.099089503744
 13
890.516438793562
 23
-661.099089503744
  0
SOLID
  8
MOJI
  6
CONTINUOUS
 62
     7
 10
890.516438793562
 20
-661.099089503744
 11
890.25625829226
 21
-660.747766463748
 12
890.516438793562
 22
-660.783906990387
 13
890.516438793562
 23
-660.783906990387
  0
SOLID
  8
MOJI
  6
CONTINUOUS
 62
     7
 10
890.516438793562
 20
-661.099089503744
 11
890.516438793562
 21
-660.783906990387
 12
890.661077682451
 22
-661.181805183747
 13
890.661077682451
 23
-661.181805183747
  0
SOLID
  8
MOJI
  6
CONTINUOUS
 62
     7
 10
890.661077682451
 20
-661.181805183747
 11
890.516438793562
 21
-660.783906990387
 12
890.661077682451
 22
-660.857515198064
 13
890.661077682451
 23
-660.857515198064
  0
SOLID
  8
MOJI
  6
CONTINUOUS
 62
     7
 10
890.661077682451
 20
-661.181805183747
 11
890.661077682451
 21
-660.857515198064
 12
890.841876293562
 22
-661.435205737132
 13
890.841876293562
 23
-661.435205737132
  0
SOLID
  8
MOJI
  6
CONTINUOUS
 62
     7
 10
890.841876293562
 20
-661.435205737132
 11
890.661077682451
 21
-660.857515198064
 12
890.841876293562
 22
-660.94952545766
 13
890.841876293562
 23
-660.94952545766
  0
SOLID
  8
MOJI
  6
CONTINUOUS
 62
     7
 10
890.841876293562
 20
-661.435205737132
 11
890.841876293562
 21
-660.94952545766
 12
890.928603127329
 22
-661.723135256234
 13
890.928603127329
 23
-661.723135256234
  0
SOLID
  8
MOJI
  6
CONTINUOUS
 62
     7
 10
890.928603127329
 20
-661.723135256234
 11
890.841876293562
 21
-660.94952545766
 12
890.928603127329
 22
-660.993661629059
 13
890.928603127329
 23
-660.993661629059
  0
SOLID
  8
MOJI
  6
CONTINUOUS
 62
     7
 10
890.928603127329
 20
-661.723135256234
 11
890.928603127329
 21
-660.993661629059
 12
890.979170238874
 22
-661.891015985613
 13
890.979170238874
 23
-661.891015985613
  0
SOLID
  8
MOJI
  6
CONTINUOUS
 62
     7
 10
890.979170238874
 20
-661.891015985613
 11
890.928603127329
 21
-660.993661629059
 12
890.979170238874
 22
-661.036169607202
 13
890.979170238874
 23
-661.036169607202
  0
SOLID
  8
MOJI
  6
CONTINUOUS
 62
     7
 10
890.979170238874
 20
-661.891015985613
 11
890.979170238874
 21
-661.036169607202
 12
891.015329961097
 22
-662.506155010136
 13
891.015329961097
 23
-662.506155010136
  0
SOLID
  8
MOJI
  6
CONTINUOUS
 62
     7
 10
891.015329961097
 20
-662.506155010136
 11
890.979170238874
 21
-661.036169607202
 12
891.015329961097
 22
-661.066566373695
 13
891.015329961097
 23
-661.066566373695
  0
SOLID
  8
MOJI
  6
CONTINUOUS
 62
     7
 10
891.015329961097
 20
-662.506155010136
 11
891.015329961097
 21
-661.066566373695
 12
891.10940173844
 22
-662.506155010136
 13
891.10940173844
 23
-662.506155010136
  0
SOLID
  8
MOJI
  6
CONTINUOUS
 62
     7
 10
891.10940173844
 20
-662.506155010136
 11
891.015329961097
 21
-661.066566373695
 12
891.10940173844
 22
-661.145645461525
 13
891.10940173844
 23
-661.145645461525
  0
SOLID
  8
MOJI
  6
CONTINUOUS
 62
     7
 10
891.10940173844
 20
-662.506155010136
 11
891.10940173844
 21
-661.145645461525
 12
891.340767461097
 22
-662.506155010136
 13
891.340767461097
 23
-662.506155010136
  0
SOLID
  8
MOJI
  6
CONTINUOUS
 62
     7
 10
891.340767461097
 20
-662.506155010136
 11
891.10940173844
 21
-661.145645461525
 12
891.340767461097
 22
-661.471365459354
 13
891.340767461097
 23
-661.471365459354
  0
SOLID
  8
MOJI
  6
CONTINUOUS
 62
     7
 10
891.340767461097
 20
-662.506155010136
 11
891.340767461097
 21
-661.471365459354
 12
891.485406349985
 22
-662.506155010136
 13
891.485406349985
 23
-662.506155010136
  0
SOLID
  8
MOJI
  6
CONTINUOUS
 62
     7
 10
891.485406349985
 20
-662.506155010136
 11
891.340767461097
 21
-661.471365459354
 12
891.485406349985
 22
-661.919972013174
 13
891.485406349985
 23
-661.919972013174
  0
SOLID
  8
MOJI
  6
CONTINUOUS
 62
     7
 10
891.485406349985
 20
-662.506155010136
 11
891.485406349985
 21
-661.919972013174
 12
891.550380850854
 22
-662.506155010136
 13
891.550380850854
 23
-662.506155010136
  0
ENDBLK
  8
0
  0
BLOCK
  8
0
  2
*U29
 70
     1
 10
0.0
 20
0.0
  0
SOLID
  8
MOJI
  6
CONTINUOUS
 62
     7
 10
888.448837176808
 20
-662.896990757748
 11
888.441492233232
 21
-662.643731453278
 12
888.448837176808
 22
-662.564283646925
 13
888.448837176808
 23
-662.564283646925
  0
SOLID
  8
MOJI
  6
CONTINUOUS
 62
     7
 10
888.448837176808
 20
-662.896990757748
 11
888.448837176808
 21
-662.564283646925
 12
888.492341842607
 22
-663.232197606528
 13
888.492341842607
 23
-663.232197606528
  0
SOLID
  8
MOJI
  6
CONTINUOUS
 62
     7
 10
888.492341842607
 20
-663.232197606528
 11
888.448837176808
 21
-662.564283646925
 12
888.492341842607
 22
-662.093708178538
 13
888.492341842607
 23
-662.093708178538
  0
SOLID
  8
MOJI
  6
CONTINUOUS
 62
     7
 10
888.492341842607
 20
-663.232197606528
 11
888.492341842607
 21
-662.093708178538
 12
888.521156621253
 22
-663.45421772715
 13
888.521156621253
 23
-663.45421772715
  0
SOLID
  8
MOJI
  6
CONTINUOUS
 62
     7
 10
888.521156621253
 20
-663.45421772715
 11
888.492341842607
 21
-662.093708178538
 12
888.521156621253
 22
-662.0084921813
 13
888.521156621253
 23
-662.0084921813
  0
SOLID
  8
MOJI
  6
CONTINUOUS
 62
     7
 10
888.521156621253
 20
-663.45421772715
 11
888.521156621253
 21
-662.0084921813
 12
888.651388120819
 22
-663.827563447042
 13
888.651388120819
 23
-663.827563447042
  0
SOLID
  8
MOJI
  6
CONTINUOUS
 62
     7
 10
888.651388120819
 20
-663.827563447042
 11
888.521156621253
 21
-662.0084921813
 12
888.651388120819
 22
-661.62334929182
 13
888.651388120819
 23
-661.62334929182
  0
SOLID
  8
MOJI
  6
CONTINUOUS
 62
     7
 10
888.651388120819
 20
-663.827563447042
 11
888.651388120819
 21
-661.62334929182
 12
888.680202899465
 22
-663.910169224545
 13
888.680202899465
 23
-663.910169224545
  0
SOLID
  8
MOJI
  6
CONTINUOUS
 62
     7
 10
888.680202899465
 20
-663.910169224545
 11
888.651388120819
 21
-661.62334929182
 12
888.680202899465
 22
-661.582777108779
 13
888.680202899465
 23
-661.582777108779
  0
SOLID
  8
MOJI
  6
CONTINUOUS
 62
     7
 10
888.680202899465
 20
-663.910169224545
 11
888.680202899465
 21
-661.582777108779
 12
888.918631067867
 22
-664.247120297018
 13
888.918631067867
 23
-664.247120297018
  0
SOLID
  8
MOJI
  6
CONTINUOUS
 62
     7
 10
888.918631067867
 20
-664.247120297018
 11
888.680202899465
 21
-661.582777108779
 12
888.918631067867
 22
-661.247062182445
 13
888.918631067867
 23
-661.247062182445
  0
SOLID
  8
MOJI
  6
CONTINUOUS
 62
     7
 10
888.918631067867
 20
-664.247120297018
 11
888.918631067867
 21
-661.247062182445
 12
888.925976011444
 22
-664.25750030636
 13
888.925976011444
 23
-664.25750030636
  0
SOLID
  8
MOJI
  6
CONTINUOUS
 62
     7
 10
888.925976011444
 20
-664.25750030636
 11
888.918631067867
 21
-661.247062182445
 12
888.925976011444
 22
-661.240434518514
 13
888.925976011444
 23
-661.240434518514
  0
SOLID
  8
MOJI
  6
CONTINUOUS
 62
     7
 10
888.925976011444
 20
-664.25750030636
 11
888.925976011444
 21
-661.240434518514
 12
888.95479079009
 22
-664.28426549824
 13
888.95479079009
 23
-664.28426549824
  0
SOLID
  8
MOJI
  6
CONTINUOUS
 62
     7
 10
888.95479079009
 20
-664.28426549824
 11
888.925976011444
 21
-661.240434518514
 12
888.95479079009
 22
-661.214433683096
 13
888.95479079009
 23
-661.214433683096
  0
SOLID
  8
MOJI
  6
CONTINUOUS
 62
     7
 10
888.95479079009
 20
-664.28426549824
 11
888.95479079009
 21
-662.716050897722
 12
888.990950512312
 22
-664.317853190011
 13
888.990950512312
 23
-664.317853190011
  0
SOLID
  8
MOJI
  6
CONTINUOUS
 62
     7
 10
888.990950512312
 20
-664.317853190011
 11
888.95479079009
 21
-662.716050897722
 12
888.990950512312
 22
-663.239427656382
 13
888.990950512312
 23
-663.239427656382
  0
SOLID
  8
MOJI
  6
CONTINUOUS
 62
     7
 10
888.95479079009
 20
-662.716050897722
 11
888.95479079009
 21
-662.506155010136
 12
888.990950512312
 22
-662.716050897722
 13
888.990950512312
 23
-662.716050897722
  0
SOLID
  8
MOJI
  6
CONTINUOUS
 62
     7
 10
888.990950512312
 20
-662.716050897722
 11
888.95479079009
 21
-662.506155010136
 12
888.990950512312
 22
-662.506155010136
 13
888.990950512312
 23
-662.506155010136
  0
SOLID
  8
MOJI
  6
CONTINUOUS
 62
     7
 10
888.95479079009
 20
-662.506155010136
 11
888.95479079009
 21
-661.214433683096
 12
888.990950512312
 22
-662.050344761655
 13
888.990950512312
 23
-662.050344761655
  0
SOLID
  8
MOJI
  6
CONTINUOUS
 62
     7
 10
888.990950512312
 20
-662.050344761655
 11
888.95479079009
 21
-661.214433683096
 12
888.990950512312
 22
-661.181805183747
 13
888.990950512312
 23
-661.181805183747
  0
SOLID
  8
MOJI
  6
CONTINUOUS
 62
     7
 10
888.990950512312
 20
-664.317853190011
 11
888.990950512312
 21
-663.239427656382
 12
888.998295455888
 22
-664.324675689902
 13
888.998295455888
 23
-664.324675689902
  0
SOLID
  8
MOJI
  6
CONTINUOUS
 62
     7
 10
888.998295455888
 20
-664.324675689902
 11
888.990950512312
 21
-663.239427656382
 12
888.998295455888
 22
-663.345738560483
 13
888.998295455888
 23
-663.345738560483
  0
SOLID
  8
MOJI
  6
CONTINUOUS
 62
     7
 10
888.990950512312
 20
-662.716050897722
 11
888.990950512312
 21
-662.506155010136
 12
888.998295455888
 22
-662.716050897722
 13
888.998295455888
 23
-662.716050897722
  0
SOLID
  8
MOJI
  6
CONTINUOUS
 62
     7
 10
888.998295455888
 20
-662.716050897722
 11
888.990950512312
 21
-662.506155010136
 12
888.998295455888
 22
-662.506155010136
 13
888.998295455888
 23
-662.506155010136
  0
SOLID
  8
MOJI
  6
CONTINUOUS
 62
     7
 10
888.990950512312
 20
-662.050344761655
 11
888.990950512312
 21
-661.181805183747
 12
888.998295455888
 22
-662.027606836885
 13
888.998295455888
 23
-662.027606836885
  0
SOLID
  8
MOJI
  6
CONTINUOUS
 62
     7
 10
888.998295455888
 20
-662.027606836885
 11
888.990950512312
 21
-661.181805183747
 12
888.998295455888
 22
-661.17632777554
 13
888.998295455888
 23
-661.17632777554
  0
SOLID
  8
MOJI
  6
CONTINUOUS
 62
     7
 10
888.998295455888
 20
-664.324675689902
 11
888.998295455888
 21
-663.345738560483
 12
889.128526955454
 22
-664.445643861047
 13
889.128526955454
 23
-664.445643861047
  0
SOLID
  8
MOJI
  6
CONTINUOUS
 62
     7
 10
889.128526955454
 20
-664.445643861047
 11
888.998295455888
 21
-663.345738560483
 12
889.128526955454
 22
-663.798735165454
 13
889.128526955454
 23
-663.798735165454
  0
SOLID
  8
MOJI
  6
CONTINUOUS
 62
     7
 10
888.998295455888
 20
-662.716050897722
 11
888.998295455888
 21
-662.506155010136
 12
889.128526955454
 22
-662.716050897722
 13
889.128526955454
 23
-662.716050897722
  0
SOLID
  8
MOJI
  6
CONTINUOUS
 62
     7
 10
889.128526955454
 20
-662.716050897722
 11
888.998295455888
 21
-662.506155010136
 12
889.128526955454
 22
-662.506155010136
 13
889.128526955454
 23
-662.506155010136
  0
SOLID
  8
MOJI
  6
CONTINUOUS
 62
     7
 10
888.998295455888
 20
-662.027606836885
 11
888.998295455888
 21
-661.17632777554
 12
889.128526955454
 22
-661.624445939994
 13
889.128526955454
 23
-661.624445939994
  0
SOLID
  8
MOJI
  6
CONTINUOUS
 62
     7
 10
889.128526955454
 20
-661.624445939994
 11
888.998295455888
 21
-661.17632777554
 12
889.128526955454
 22
-661.079209114642
 13
889.128526955454
 23
-661.079209114642
  0
SOLID
  8
MOJI
  6
CONTINUOUS
 62
     7
 10
889.128526955454
 20
-664.445643861047
 11
889.128526955454
 21
-663.798735165454
 12
889.135589401201
 22
-664.445588448011
 13
889.135589401201
 23
-664.445588448011
  0
SOLID
  8
MOJI
  6
CONTINUOUS
 62
     7
 10
889.135589401201
 20
-664.445588448011
 11
889.128526955454
 21
-663.798735165454
 12
889.135589401201
 22
-663.823301141863
 13
889.135589401201
 23
-663.823301141863
  0
SOLID
  8
MOJI
  6
CONTINUOUS
 62
     7
 10
889.128526955454
 20
-662.716050897722
 11
889.128526955454
 21
-662.506155010136
 12
889.135589401201
 22
-662.716050897722
 13
889.135589401201
 23
-662.716050897722
  0
SOLID
  8
MOJI
  6
CONTINUOUS
 62
     7
 10
889.135589401201
 20
-662.716050897722
 11
889.128526955454
 21
-662.506155010136
 12
889.135589401201
 22
-662.506155010136
 13
889.135589401201
 23
-662.506155010136
  0
SOLID
  8
MOJI
  6
CONTINUOUS
 62
     7
 10
889.128526955454
 20
-661.624445939994
 11
889.128526955454
 21
-661.079209114642
 12
889.135589401201
 22
-661.602582550791
 13
889.135589401201
 23
-661.602582550791
  0
SOLID
  8
MOJI
  6
CONTINUOUS
 62
     7
 10
889.135589401201
 20
-661.602582550791
 11
889.128526955454
 21
-661.079209114642
 12
889.135589401201
 22
-661.073942375982
 13
889.135589401201
 23
-661.073942375982
  0
SOLID
  8
MOJI
  6
CONTINUOUS
 62
     7
 10
889.135589401201
 20
-664.445588448011
 11
889.135589401201
 21
-663.823301141863
 12
889.142934344777
 22
-664.445530818454
 13
889.142934344777
 23
-664.445530818454
  0
SOLID
  8
MOJI
  6
CONTINUOUS
 62
     7
 10
889.142934344777
 20
-664.445530818454
 11
889.135589401201
 21
-663.823301141863
 12
889.142934344777
 22
-663.833726521473
 13
889.142934344777
 23
-663.833726521473
  0
SOLID
  8
MOJI
  6
CONTINUOUS
 62
     7
 10
889.135589401201
 20
-662.716050897722
 11
889.135589401201
 21
-662.506155010136
 12
889.142934344777
 22
-662.716050897722
 13
889.142934344777
 23
-662.716050897722
  0
SOLID
  8
MOJI
  6
CONTINUOUS
 62
     7
 10
889.142934344777
 20
-662.716050897722
 11
889.135589401201
 21
-662.506155010136
 12
889.142934344777
 22
-662.506155010136
 13
889.142934344777
 23
-662.506155010136
  0
SOLID
  8
MOJI
  6
CONTINUOUS
 62
     7
 10
889.135589401201
 20
-661.602582550791
 11
889.135589401201
 21
-661.073942375982
 12
889.142934344777
 22
-661.579844626021
 13
889.142934344777
 23
-661.579844626021
  0
SOLID
  8
MOJI
  6
CONTINUOUS
 62
     7
 10
889.142934344777
 20
-661.579844626021
 11
889.135589401201
 21
-661.073942375982
 12
889.142934344777
 22
-661.068464967775
 13
889.142934344777
 23
-661.068464967775
  0
SOLID
  8
MOJI
  6
CONTINUOUS
 62
     7
 10
889.142934344777
 20
-664.445530818454
 11
889.142934344777
 21
-663.833726521473
 12
889.35989267811
 22
-664.443828529992
 13
889.35989267811
 23
-664.443828529992
  0
SOLID
  8
MOJI
  6
CONTINUOUS
 62
     7
 10
889.35989267811
 20
-664.443828529992
 11
889.142934344777
 21
-663.833726521473
 12
889.35989267811
 22
-664.141676196117
 13
889.35989267811
 23
-664.141676196117
  0
SOLID
  8
MOJI
  6
CONTINUOUS
 62
     7
 10
889.142934344777
 20
-662.716050897722
 11
889.142934344777
 21
-662.506155010136
 12
889.35989267811
 22
-662.716050897722
 13
889.35989267811
 23
-662.716050897722
  0
SOLID
  8
MOJI
  6
CONTINUOUS
 62
     7
 10
889.35989267811
 20
-662.716050897722
 11
889.142934344777
 21
-662.506155010136
 12
889.35989267811
 22
-662.506155010136
 13
889.35989267811
 23
-662.506155010136
  0
SOLID
  8
MOJI
  6
CONTINUOUS
 62
     7
 10
889.142934344777
 20
-661.579844626021
 11
889.142934344777
 21
-661.068464967775
 12
889.35989267811
 22
-661.278199516539
 13
889.35989267811
 23
-661.278199516539
  0
SOLID
  8
MOJI
  6
CONTINUOUS
 62
     7
 10
889.35989267811
 20
-661.278199516539
 11
889.142934344777
 21
-661.068464967775
 12
889.35989267811
 22
-660.906670756127
 13
889.35989267811
 23
-660.906670756127
  0
SOLID
  8
MOJI
  6
CONTINUOUS
 62
     7
 10
889.35989267811
 20
-664.443828529992
 11
889.35989267811
 21
-664.141676196117
 12
889.374300067433
 22
-664.443715487399
 13
889.374300067433
 23
-664.443715487399
  0
SOLID
  8
MOJI
  6
CONTINUOUS
 62
     7
 10
889.374300067433
 20
-664.443715487399
 11
889.35989267811
 21
-664.141676196117
 12
889.374300067433
 22
-664.149021139693
 13
889.374300067433
 23
-664.149021139693
  0
SOLID
  8
MOJI
  6
CONTINUOUS
 62
     7
 10
889.35989267811
 20
-662.716050897722
 11
889.35989267811
 21
-662.506155010136
 12
889.374300067433
 22
-662.716050897722
 13
889.374300067433
 23
-662.716050897722
  0
SOLID
  8
MOJI
  6
CONTINUOUS
 62
     7
 10
889.374300067433
 20
-662.716050897722
 11
889.35989267811
 21
-662.506155010136
 12
889.374300067433
 22
-662.506155010136
 13
889.374300067433
 23
-662.506155010136
  0
SOLID
  8
MOJI
  6
CONTINUOUS
 62
     7
 10
889.35989267811
 20
-661.278199516539
 11
889.35989267811
 21
-660.906670756127
 12
889.374300067433
 22
-661.258168395987
 13
889.374300067433
 23
-661.258168395987
  0
SOLID
  8
MOJI
  6
CONTINUOUS
 62
     7
 10
889.374300067433
 20
-661.258168395987
 11
889.35989267811
 21
-660.906670756127
 12
889.374300067433
 22
-660.89592660926
 13
889.374300067433
 23
-660.89592660926
  0
SOLID
  8
MOJI
  6
CONTINUOUS
 62
     7
 10
889.374300067433
 20
-664.443715487399
 11
889.374300067433
 21
-664.149021139693
 12
889.388707456756
 22
-664.443602444806
 13
889.388707456756
 23
-664.443602444806
  0
SOLID
  8
MOJI
  6
CONTINUOUS
 62
     7
 10
889.388707456756
 20
-664.443602444806
 11
889.374300067433
 21
-664.149021139693
 12
889.388707456756
 22
-664.157477228709
 13
889.388707456756
 23
-664.157477228709
  0
SOLID
  8
MOJI
  6
CONTINUOUS
 62
     7
 10
889.374300067433
 20
-662.716050897722
 11
889.374300067433
 21
-662.506155010136
 12
889.388707456756
 22
-662.716050897722
 13
889.388707456756
 23
-662.716050897722
  0
SOLID
  8
MOJI
  6
CONTINUOUS
 62
     7
 10
889.388707456756
 20
-662.716050897722
 11
889.374300067433
 21
-662.506155010136
 12
889.388707456756
 22
-662.506155010136
 13
889.388707456756
 23
-662.506155010136
  0
SOLID
  8
MOJI
  6
CONTINUOUS
 62
     7
 10
889.374300067433
 20
-661.258168395987
 11
889.374300067433
 21
-660.89592660926
 12
889.388707456756
 22
-661.238137275436
 13
889.388707456756
 23
-661.238137275436
  0
SOLID
  8
MOJI
  6
CONTINUOUS
 62
     7
 10
889.388707456756
 20
-661.238137275436
 11
889.374300067433
 21
-660.89592660926
 12
889.388707456756
 22
-660.885182462393
 13
889.388707456756
 23
-660.885182462393
  0
SOLID
  8
MOJI
  6
CONTINUOUS
 62
     7
 10
889.388707456756
 20
-664.443602444806
 11
889.388707456756
 21
-664.157477228709
 12
889.403114846079
 22
-664.443489402213
 13
889.403114846079
 23
-664.443489402213
  0
SOLID
  8
MOJI
  6
CONTINUOUS
 62
     7
 10
889.403114846079
 20
-664.443489402213
 11
889.388707456756
 21
-664.157477228709
 12
889.403114846079
 22
-664.165933317726
 13
889.403114846079
 23
-664.165933317726
  0
SOLID
  8
MOJI
  6
CONTINUOUS
 62
     7
 10
889.388707456756
 20
-662.716050897722
 11
889.388707456756
 21
-662.506155010136
 12
889.403114846079
 22
-662.716050897722
 13
889.403114846079
 23
-662.716050897722
  0
SOLID
  8
MOJI
  6
CONTINUOUS
 62
     7
 10
889.403114846079
 20
-662.716050897722
 11
889.388707456756
 21
-662.506155010136
 12
889.403114846079
 22
-662.506155010136
 13
889.403114846079
 23
-662.506155010136
  0
SOLID
  8
MOJI
  6
CONTINUOUS
 62
     7
 10
889.388707456756
 20
-661.238137275436
 11
889.388707456756
 21
-660.885182462393
 12
889.403114846079
 22
-661.218106154884
 13
889.403114846079
 23
-661.218106154884
  0
SOLID
  8
MOJI
  6
CONTINUOUS
 62
     7
 10
889.403114846079
 20
-661.218106154884
 11
889.388707456756
 21
-660.885182462393
 12
889.403114846079
 22
-660.886132026266
 13
889.403114846079
 23
-660.886132026266
  0
SOLID
  8
MOJI
  6
CONTINUOUS
 62
     7
 10
889.403114846079
 20
-664.443489402213
 11
889.403114846079
 21
-664.165933317726
 12
889.627418122989
 22
-664.441729484194
 13
889.627418122989
 23
-664.441729484194
  0
SOLID
  8
MOJI
  6
CONTINUOUS
 62
     7
 10
889.627418122989
 20
-664.441729484194
 11
889.403114846079
 21
-664.165933317726
 12
889.627418122989
 22
-664.297583017314
 13
889.627418122989
 23
-664.297583017314
  0
SOLID
  8
MOJI
  6
CONTINUOUS
 62
     7
 10
889.403114846079
 20
-662.716050897722
 11
889.403114846079
 21
-662.506155010136
 12
889.627418122989
 22
-662.716050897722
 13
889.627418122989
 23
-662.716050897722
  0
SOLID
  8
MOJI
  6
CONTINUOUS
 62
     7
 10
889.627418122989
 20
-662.716050897722
 11
889.403114846079
 21
-662.506155010136
 12
889.627418122989
 22
-662.506155010136
 13
889.627418122989
 23
-662.506155010136
  0
SOLID
  8
MOJI
  6
CONTINUOUS
 62
     7
 10
889.403114846079
 20
-661.218106154884
 11
889.403114846079
 21
-660.886132026266
 12
889.627418122989
 22
-661.051573684181
 13
889.627418122989
 23
-661.051573684181
  0
SOLID
  8
MOJI
  6
CONTINUOUS
 62
     7
 10
889.627418122989
 20
-661.051573684181
 11
889.403114846079
 21
-660.886132026266
 12
889.627418122989
 22
-660.900915432451
 13
889.627418122989
 23
-660.900915432451
  0
SOLID
  8
MOJI
  6
CONTINUOUS
 62
     7
 10
889.627418122989
 20
-664.441729484194
 11
889.627418122989
 21
-664.297583017314
 12
889.793526846947
 22
-664.440426169591
 13
889.793526846947
 23
-664.440426169591
  0
SOLID
  8
MOJI
  6
CONTINUOUS
 62
     7
 10
889.793526846947
 20
-664.440426169591
 11
889.627418122989
 21
-664.297583017314
 12
889.793526846947
 22
-664.395076749502
 13
889.793526846947
 23
-664.395076749502
  0
SOLID
  8
MOJI
  6
CONTINUOUS
 62
     7
 10
889.627418122989
 20
-662.716050897722
 11
889.627418122989
 21
-662.506155010136
 12
889.793526846947
 22
-662.716050897722
 13
889.793526846947
 23
-662.716050897722
  0
SOLID
  8
MOJI
  6
CONTINUOUS
 62
     7
 10
889.793526846947
 20
-662.716050897722
 11
889.627418122989
 21
-662.506155010136
 12
889.793526846947
 22
-662.506155010136
 13
889.793526846947
 23
-662.506155010136
  0
SOLID
  8
MOJI
  6
CONTINUOUS
 62
     7
 10
889.627418122989
 20
-661.051573684181
 11
889.627418122989
 21
-660.900915432451
 12
889.793526846947
 22
-661.002826818087
 13
889.793526846947
 23
-661.002826818087
  0
SOLID
  8
MOJI
  6
CONTINUOUS
 62
     7
 10
889.793526846947
 20
-661.002826818087
 11
889.627418122989
 21
-660.900915432451
 12
889.793526846947
 22
-660.911863345344
 13
889.793526846947
 23
-660.911863345344
  0
SOLID
  8
MOJI
  6
CONTINUOUS
 62
     7
 10
889.793526846947
 20
-664.440426169591
 11
889.793526846947
 21
-664.395076749502
 12
890.046644902503
 22
-664.438440166386
 13
890.046644902503
 23
-664.438440166386
  0
SOLID
  8
MOJI
  6
CONTINUOUS
 62
     7
 10
889.793526846947
 20
-662.716050897722
 11
889.793526846947
 21
-662.506155010136
 12
890.046644902503
 22
-662.716050897722
 13
890.046644902503
 23
-662.716050897722
  0
SOLID
  8
MOJI
  6
CONTINUOUS
 62
     7
 10
890.046644902503
 20
-662.716050897722
 11
889.793526846947
 21
-662.506155010136
 12
890.046644902503
 22
-662.506155010136
 13
890.046644902503
 23
-662.506155010136
  0
SOLID
  8
MOJI
  6
CONTINUOUS
 62
     7
 10
889.793526846947
 20
-661.002826818087
 11
889.793526846947
 21
-660.911863345344
 12
890.046644902503
 22
-660.928545879276
 13
890.046644902503
 23
-660.928545879276
  0
SOLID
  8
MOJI
  6
CONTINUOUS
 62
     7
 10
890.046644902503
 20
-662.716050897722
 11
890.046644902503
 21
-662.506155010136
 12
891.550380850854
 22
-662.716050897722
 13
891.550380850854
 23
-662.716050897722
  0
SOLID
  8
MOJI
  6
CONTINUOUS
 62
     7
 10
891.550380850854
 20
-662.716050897722
 11
890.046644902503
 21
-662.506155010136
 12
891.550380850854
 22
-662.506155010136
 13
891.550380850854
 23
-662.506155010136
  0
SOLID
  8
MOJI
  6
CONTINUOUS
 62
     7
 10
891.550380850854
 20
-662.716050897722
 11
891.550380850854
 21
-662.506155010136
 12
891.55772579443
 22
-662.716050897722
 13
891.55772579443
 23
-662.716050897722
  0
ENDBLK
  8
0
  0
BLOCK
  8
0
  2
*U30
 70
     1
 10
0.0
 20
0.0
  0
SOLID
  8
MOJI
  6
CONTINUOUS
 62
     7
 10
889.533346345645
 20
-664.655539748634
 11
889.128526955454
 21
-664.445643861047
 12
889.533346345645
 22
-664.442467585832
 13
889.533346345645
 23
-664.442467585832
  0
SOLID
  8
MOJI
  6
CONTINUOUS
 62
     7
 10
889.533346345645
 20
-664.655539748634
 11
889.533346345645
 21
-664.442467585832
 12
890.017830123857
 22
-664.720655498417
 13
890.017830123857
 23
-664.720655498417
  0
SOLID
  8
MOJI
  6
CONTINUOUS
 62
     7
 10
890.017830123857
 20
-664.720655498417
 11
889.533346345645
 21
-664.442467585832
 12
890.017830123857
 22
-664.438666251572
 13
890.017830123857
 23
-664.438666251572
  0
SOLID
  8
MOJI
  6
CONTINUOUS
 62
     7
 10
890.017830123857
 20
-664.720655498417
 11
890.017830123857
 21
-664.438666251572
 12
890.046644902503
 22
-664.719217578934
 13
890.046644902503
 23
-664.719217578934
  0
SOLID
  8
MOJI
  6
CONTINUOUS
 62
     7
 10
890.046644902503
 20
-664.719217578934
 11
890.017830123857
 21
-664.438666251572
 12
890.046644902503
 22
-664.438440166386
 13
890.046644902503
 23
-664.438440166386
  0
SOLID
  8
MOJI
  6
CONTINUOUS
 62
     7
 10
890.046644902503
 20
-664.719217578934
 11
890.046644902503
 21
-664.438440166386
 12
890.162186514916
 22
-664.713451803755
 13
890.162186514916
 23
-664.713451803755
  0
SOLID
  8
MOJI
  6
CONTINUOUS
 62
     7
 10
890.162186514916
 20
-664.713451803755
 11
890.046644902503
 21
-664.438440166386
 12
890.162186514916
 22
-664.419990146736
 13
890.162186514916
 23
-664.419990146736
  0
SOLID
  8
MOJI
  6
CONTINUOUS
 62
     7
 10
890.162186514916
 20
-664.713451803755
 11
890.162186514916
 21
-664.419990146736
 12
890.545536070038
 22
-664.61601019334
 13
890.545536070038
 23
-664.61601019334
  0
SOLID
  8
MOJI
  6
CONTINUOUS
 62
     7
 10
890.545536070038
 20
-664.61601019334
 11
890.162186514916
 21
-664.419990146736
 12
890.545536070038
 22
-664.358775778365
 13
890.545536070038
 23
-664.358775778365
  0
SOLID
  8
MOJI
  6
CONTINUOUS
 62
     7
 10
890.545536070038
 20
-664.61601019334
 11
890.545536070038
 21
-664.358775778365
 12
890.617855514482
 22
-664.597627693512
 13
890.617855514482
 23
-664.597627693512
  0
SOLID
  8
MOJI
  6
CONTINUOUS
 62
     7
 10
890.617855514482
 20
-664.597627693512
 11
890.545536070038
 21
-664.358775778365
 12
890.617855514482
 22
-664.31413971228
 13
890.617855514482
 23
-664.31413971228
  0
SOLID
  8
MOJI
  6
CONTINUOUS
 62
     7
 10
890.617855514482
 20
-664.597627693512
 11
890.617855514482
 21
-664.31413971228
 12
890.88538095936
 22
-664.399336746097
 13
890.88538095936
 23
-664.399336746097
  0
SOLID
  8
MOJI
  6
CONTINUOUS
 62
     7
 10
890.88538095936
 20
-664.399336746097
 11
890.617855514482
 21
-664.31413971228
 12
890.88538095936
 22
-664.149021139693
 13
890.88538095936
 23
-664.149021139693
  0
SOLID
  8
MOJI
  6
CONTINUOUS
 62
     7
 10
890.88538095936
 20
-664.399336746097
 11
890.88538095936
 21
-664.149021139693
 12
890.979170238874
 22
-664.329819750804
 13
890.979170238874
 23
-664.329819750804
  0
SOLID
  8
MOJI
  6
CONTINUOUS
 62
     7
 10
890.979170238874
 20
-664.329819750804
 11
890.88538095936
 21
-664.149021139693
 12
890.979170238874
 22
-664.014163808929
 13
890.979170238874
 23
-664.014163808929
  0
SOLID
  8
MOJI
  6
CONTINUOUS
 62
     7
 10
890.979170238874
 20
-664.329819750804
 11
890.979170238874
 21
-664.014163808929
 12
891.167313793562
 22
-664.100848846076
 13
891.167313793562
 23
-664.100848846076
  0
SOLID
  8
MOJI
  6
CONTINUOUS
 62
     7
 10
891.167313793562
 20
-664.100848846076
 11
890.979170238874
 21
-664.014163808929
 12
891.167313793562
 22
-663.743636753842
 13
891.167313793562
 23
-663.743636753842
  0
SOLID
  8
MOJI
  6
CONTINUOUS
 62
     7
 10
891.167313793562
 20
-664.100848846076
 11
891.167313793562
 21
-663.743636753842
 12
891.246695683753
 22
-664.004241001889
 13
891.246695683753
 23
-664.004241001889
  0
SOLID
  8
MOJI
  6
CONTINUOUS
 62
     7
 10
891.246695683753
 20
-664.004241001889
 11
891.167313793562
 21
-663.743636753842
 12
891.246695683753
 22
-663.575726799156
 13
891.246695683753
 23
-663.575726799156
  0
SOLID
  8
MOJI
  6
CONTINUOUS
 62
     7
 10
891.246695683753
 20
-664.004241001889
 11
891.246695683753
 21
-663.575726799156
 12
891.297262795298
 22
-663.904719922331
 13
891.297262795298
 23
-663.904719922331
  0
SOLID
  8
MOJI
  6
CONTINUOUS
 62
     7
 10
891.297262795298
 20
-663.904719922331
 11
891.246695683753
 21
-663.575726799156
 12
891.297262795298
 22
-663.468766365387
 13
891.297262795298
 23
-663.468766365387
  0
SOLID
  8
MOJI
  6
CONTINUOUS
 62
     7
 10
891.297262795298
 20
-663.904719922331
 11
891.297262795298
 21
-663.468766365387
 12
891.463654017086
 22
-663.577245532054
 13
891.463654017086
 23
-663.577245532054
  0
ENDBLK
  8
0
  0
BLOCK
  8
0
  2
*U31
 70
     1
 10
0.0
 20
0.0
  0
SOLID
  8
MOJI
  6
CONTINUOUS
 62
     7
 10
885.838839726722
 20
-664.720655498417
 11
885.643633726288
 21
-664.720655498417
 12
885.838839726722
 22
-663.566650794716
 13
885.838839726722
 23
-663.566650794716
  0
SOLID
  8
MOJI
  6
CONTINUOUS
 62
     7
 10
885.838839726722
 20
-664.720655498417
 11
885.838839726722
 21
-663.566650794716
 12
885.867654505367
 22
-664.602436342704
 13
885.867654505367
 23
-664.602436342704
  0
SOLID
  8
MOJI
  6
CONTINUOUS
 62
     7
 10
885.867654505367
 20
-664.602436342704
 11
885.838839726722
 21
-663.566650794716
 12
885.867654505367
 22
-663.396305672028
 13
885.867654505367
 23
-663.396305672028
  0
SOLID
  8
MOJI
  6
CONTINUOUS
 62
     7
 10
885.867654505367
 20
-664.602436342704
 11
885.867654505367
 21
-663.396305672028
 12
885.932911504065
 22
-664.334704725354
 13
885.932911504065
 23
-664.334704725354
  0
SOLID
  8
MOJI
  6
CONTINUOUS
 62
     7
 10
885.932911504065
 20
-664.334704725354
 11
885.867654505367
 21
-663.396305672028
 12
885.932911504065
 22
-663.396305672028
 13
885.932911504065
 23
-663.396305672028
  0
SOLID
  8
MOJI
  6
CONTINUOUS
 62
     7
 10
885.932911504065
 20
-664.334704725354
 11
885.932911504065
 21
-663.396305672028
 12
886.547344284013
 22
-661.813855081473
 13
886.547344284013
 23
-661.813855081473
  0
SOLID
  8
MOJI
  6
CONTINUOUS
 62
     7
 10
886.547344284013
 20
-661.813855081473
 11
885.932911504065
 21
-663.396305672028
 12
886.547344284013
 22
-660.811978821985
 13
886.547344284013
 23
-660.811978821985
  0
SOLID
  8
MOJI
  6
CONTINUOUS
 62
     7
 10
886.547344284013
 20
-661.813855081473
 11
886.547344284013
 21
-660.811978821985
 12
886.641416061357
 22
-661.42790430841
 13
886.641416061357
 23
-661.42790430841
  0
SOLID
  8
MOJI
  6
CONTINUOUS
 62
     7
 10
886.641416061357
 20
-661.42790430841
 11
886.547344284013
 21
-660.811978821985
 12
886.641416061357
 22
-660.416309469771
 13
886.641416061357
 23
-660.416309469771
  0
SOLID
  8
MOJI
  6
CONTINUOUS
 62
     7
 10
886.547344284013
 20
-658.822665806577
 11
886.547344284013
 21
-658.605566224328
 12
886.641416061357
 22
-658.822665806577
 13
886.641416061357
 23
-658.822665806577
  0
SOLID
  8
MOJI
  6
CONTINUOUS
 62
     7
 10
886.641416061357
 20
-658.822665806577
 11
886.547344284013
 21
-658.605566224328
 12
886.641416061357
 22
-658.605566224328
 13
886.641416061357
 23
-658.605566224328
  0
SOLID
  8
MOJI
  6
CONTINUOUS
 62
     7
 10
886.641416061357
 20
-661.42790430841
 11
886.641416061357
 21
-660.416309469771
 12
886.829277118215
 22
-660.657161773615
 13
886.829277118215
 23
-660.657161773615
  0
SOLID
  8
MOJI
  6
CONTINUOUS
 62
     7
 10
886.829277118215
 20
-660.657161773615
 11
886.641416061357
 21
-660.416309469771
 12
886.829277118215
 22
-659.626158961597
 13
886.829277118215
 23
-659.626158961597
  0
SOLID
  8
MOJI
  6
CONTINUOUS
 62
     7
 10
886.641416061357
 20
-658.822665806577
 11
886.641416061357
 21
-658.605566224328
 12
886.829277118215
 22
-658.873374167037
 13
886.829277118215
 23
-658.873374167037
  0
SOLID
  8
MOJI
  6
CONTINUOUS
 62
     7
 10
886.829277118215
 20
-658.873374167037
 11
886.641416061357
 21
-658.605566224328
 12
886.829277118215
 22
-658.605566224328
 13
886.829277118215
 23
-658.605566224328
  0
SOLID
  8
MOJI
  6
CONTINUOUS
 62
     7
 10
886.829277118215
 20
-660.657161773615
 11
886.829277118215
 21
-659.626158961597
 12
886.901596562659
 22
-660.360454873002
 13
886.901596562659
 23
-660.360454873002
  0
SOLID
  8
MOJI
  6
CONTINUOUS
 62
     7
 10
886.901596562659
 20
-660.360454873002
 11
886.829277118215
 21
-659.626158961597
 12
886.901596562659
 22
-659.321980720856
 13
886.901596562659
 23
-659.321980720856
  0
SOLID
  8
MOJI
  6
CONTINUOUS
 62
     7
 10
886.829277118215
 20
-658.873374167037
 11
886.829277118215
 21
-658.605566224328
 12
886.901596562659
 22
-659.321980720856
 13
886.901596562659
 23
-659.321980720856
  0
SOLID
  8
MOJI
  6
CONTINUOUS
 62
     7
 10
886.901596562659
 20
-659.321980720856
 11
886.829277118215
 21
-658.605566224328
 12
886.901596562659
 22
-658.605566224328
 13
886.901596562659
 23
-658.605566224328
  0
SOLID
  8
MOJI
  6
CONTINUOUS
 62
     7
 10
886.901596562659
 20
-660.360454873002
 11
886.901596562659
 21
-658.605566224328
 12
887.154714618215
 22
-659.321980720856
 13
887.154714618215
 23
-659.321980720856
  0
SOLID
  8
MOJI
  6
CONTINUOUS
 62
     7
 10
887.154714618215
 20
-659.321980720856
 11
886.901596562659
 21
-658.605566224328
 12
887.154714618215
 22
-658.605566224328
 13
887.154714618215
 23
-658.605566224328
  0
SOLID
  8
MOJI
  6
CONTINUOUS
 62
     7
 10
887.154714618215
 20
-659.321980720856
 11
887.154714618215
 21
-658.605566224328
 12
887.270256230628
 22
-659.054314027063
 13
887.270256230628
 23
-659.054314027063
  0
SOLID
  8
MOJI
  6
CONTINUOUS
 62
     7
 10
887.270256230628
 20
-659.054314027063
 11
887.154714618215
 21
-658.605566224328
 12
887.270256230628
 22
-658.605566224328
 13
887.270256230628
 23
-658.605566224328
  0
SOLID
  8
MOJI
  6
CONTINUOUS
 62
     7
 10
887.270256230628
 20
-659.054314027063
 11
887.270256230628
 21
-658.605566224328
 12
887.573941397729
 22
-658.822665806577
 13
887.573941397729
 23
-658.822665806577
  0
SOLID
  8
MOJI
  6
CONTINUOUS
 62
     7
 10
887.573941397729
 20
-658.822665806577
 11
887.270256230628
 21
-658.605566224328
 12
887.573941397729
 22
-658.605566224328
 13
887.573941397729
 23
-658.605566224328
  0
SOLID
  8
MOJI
  6
CONTINUOUS
 62
     7
 10
887.573941397729
 20
-658.822665806577
 11
887.573941397729
 21
-658.605566224328
 12
887.704172897294
 22
-658.822665806577
 13
887.704172897294
 23
-658.822665806577
  0
SOLID
  8
MOJI
  6
CONTINUOUS
 62
     7
 10
887.704172897294
 20
-658.822665806577
 11
887.573941397729
 21
-658.605566224328
 12
887.704172897294
 22
-658.605566224328
 13
887.704172897294
 23
-658.605566224328
  0
ENDBLK
  8
0
  0
BLOCK
  8
0
  2
*U32
 70
     1
 10
0.0
 20
0.0
  0
SOLID
  8
MOJI
  6
CONTINUOUS
 62
     7
 10
884.009666278371
 20
-658.822665806577
 11
884.009666278371
 21
-658.605566224328
 12
884.103738055715
 22
-658.822665806577
 13
884.103738055715
 23
-658.822665806577
  0
SOLID
  8
MOJI
  6
CONTINUOUS
 62
     7
 10
884.103738055715
 20
-658.822665806577
 11
884.009666278371
 21
-658.605566224328
 12
884.103738055715
 22
-658.605566224328
 13
884.103738055715
 23
-658.605566224328
  0
SOLID
  8
MOJI
  6
CONTINUOUS
 62
     7
 10
884.103738055715
 20
-658.822665806577
 11
884.103738055715
 21
-658.605566224328
 12
884.262784333926
 22
-658.86602922346
 13
884.262784333926
 23
-658.86602922346
  0
SOLID
  8
MOJI
  6
CONTINUOUS
 62
     7
 10
884.262784333926
 20
-658.86602922346
 11
884.103738055715
 21
-658.605566224328
 12
884.262784333926
 22
-658.605566224328
 13
884.262784333926
 23
-658.605566224328
  0
SOLID
  8
MOJI
  6
CONTINUOUS
 62
     7
 10
884.262784333926
 20
-658.86602922346
 11
884.262784333926
 21
-658.605566224328
 12
884.45799033436
 22
-659.321980720856
 13
884.45799033436
 23
-659.321980720856
  0
SOLID
  8
MOJI
  6
CONTINUOUS
 62
     7
 10
884.45799033436
 20
-659.321980720856
 11
884.262784333926
 21
-658.605566224328
 12
884.45799033436
 22
-658.605566224328
 13
884.45799033436
 23
-658.605566224328
  0
SOLID
  8
MOJI
  6
CONTINUOUS
 62
     7
 10
884.45799033436
 20
-659.321980720856
 11
884.45799033436
 21
-658.605566224328
 12
884.935129168996
 22
-661.49457107094
 13
884.935129168996
 23
-661.49457107094
  0
SOLID
  8
MOJI
  6
CONTINUOUS
 62
     7
 10
884.935129168996
 20
-661.49457107094
 11
884.45799033436
 21
-658.605566224328
 12
884.935129168996
 22
-658.605566224328
 13
884.935129168996
 23
-658.605566224328
  0
SOLID
  8
MOJI
  6
CONTINUOUS
 62
     7
 10
884.935129168996
 20
-661.49457107094
 11
884.935129168996
 21
-659.046969083486
 12
884.971288891218
 22
-661.659219717956
 13
884.971288891218
 23
-661.659219717956
  0
SOLID
  8
MOJI
  6
CONTINUOUS
 62
     7
 10
884.971288891218
 20
-661.659219717956
 11
884.935129168996
 21
-659.046969083486
 12
884.971288891218
 22
-659.213501554189
 13
884.971288891218
 23
-659.213501554189
  0
SOLID
  8
MOJI
  6
CONTINUOUS
 62
     7
 10
884.935129168996
 20
-659.046969083486
 11
884.935129168996
 21
-658.605566224328
 12
884.971288891218
 22
-659.015795555316
 13
884.971288891218
 23
-659.015795555316
  0
SOLID
  8
MOJI
  6
CONTINUOUS
 62
     7
 10
884.971288891218
 20
-659.015795555316
 11
884.935129168996
 21
-658.605566224328
 12
884.971288891218
 22
-658.605566224328
 13
884.971288891218
 23
-658.605566224328
  0
SOLID
  8
MOJI
  6
CONTINUOUS
 62
     7
 10
884.971288891218
 20
-661.659219717956
 11
884.971288891218
 21
-659.213501554189
 12
885.195309670298
 22
-662.679269538924
 13
885.195309670298
 23
-662.679269538924
  0
SOLID
  8
MOJI
  6
CONTINUOUS
 62
     7
 10
885.195309670298
 20
-662.679269538924
 11
884.971288891218
 21
-659.213501554189
 12
885.195309670298
 22
-660.258873021395
 13
885.195309670298
 23
-660.258873021395
  0
SOLID
  8
MOJI
  6
CONTINUOUS
 62
     7
 10
884.971288891218
 20
-659.015795555316
 11
884.971288891218
 21
-658.605566224328
 12
885.195309670298
 22
-658.822665806577
 13
885.195309670298
 23
-658.822665806577
  0
SOLID
  8
MOJI
  6
CONTINUOUS
 62
     7
 10
885.195309670298
 20
-658.822665806577
 11
884.971288891218
 21
-658.605566224328
 12
885.195309670298
 22
-658.605566224328
 13
885.195309670298
 23
-658.605566224328
  0
SOLID
  8
MOJI
  6
CONTINUOUS
 62
     7
 10
885.195309670298
 20
-662.679269538924
 11
885.195309670298
 21
-660.258873021395
 12
885.325541169864
 22
-663.272261931695
 13
885.325541169864
 23
-663.272261931695
  0
SOLID
  8
MOJI
  6
CONTINUOUS
 62
     7
 10
885.325541169864
 20
-663.272261931695
 11
885.195309670298
 21
-660.258873021395
 12
885.325541169864
 22
-660.866585816329
 13
885.325541169864
 23
-660.866585816329
  0
SOLID
  8
MOJI
  6
CONTINUOUS
 62
     7
 10
885.195309670298
 20
-658.822665806577
 11
885.195309670298
 21
-658.605566224328
 12
885.325541169864
 22
-658.822665806577
 13
885.325541169864
 23
-658.822665806577
  0
SOLID
  8
MOJI
  6
CONTINUOUS
 62
     7
 10
885.325541169864
 20
-658.822665806577
 11
885.195309670298
 21
-658.605566224328
 12
885.325541169864
 22
-658.605566224328
 13
885.325541169864
 23
-658.605566224328
  0
SOLID
  8
MOJI
  6
CONTINUOUS
 62
     7
 10
885.325541169864
 20
-663.272261931695
 11
885.325541169864
 21
-660.866585816329
 12
885.643633726288
 22
-664.720655498417
 13
885.643633726288
 23
-664.720655498417
  0
SOLID
  8
MOJI
  6
CONTINUOUS
 62
     7
 10
885.643633726288
 20
-664.720655498417
 11
885.325541169864
 21
-660.866585816329
 12
885.643633726288
 22
-662.350934204822
 13
885.643633726288
 23
-662.350934204822
  0
SOLID
  8
MOJI
  6
CONTINUOUS
 62
     7
 10
885.643633726288
 20
-664.720655498417
 11
885.643633726288
 21
-662.350934204822
 12
885.867654505367
 22
-663.396305672028
 13
885.867654505367
 23
-663.396305672028
  0
ENDBLK
  8
0
  0
BLOCK
  8
0
  2
*U33
 70
     1
 10
0.0
 20
0.0
  0
SOLID
  8
MOJI
  6
CONTINUOUS
 62
     7
 10
921.19287813818
 20
-665.11149124603
 11
921.099088858666
 21
-664.959507413564
 12
921.19287813818
 22
-664.788368176574
 13
921.19287813818
 23
-664.788368176574
  0
SOLID
  8
MOJI
  6
CONTINUOUS
 62
     7
 10
921.19287813818
 20
-658.632414087812
 11
921.099088858666
 21
-658.460786086525
 12
921.19287813818
 22
-658.316147197636
 13
921.19287813818
 23
-658.316147197636
  0
SOLID
  8
MOJI
  6
CONTINUOUS
 62
     7
 10
921.19287813818
 20
-665.11149124603
 11
921.19287813818
 21
-664.788368176574
 12
921.265197582624
 22
-664.995667135787
 13
921.265197582624
 23
-664.995667135787
  0
SOLID
  8
MOJI
  6
CONTINUOUS
 62
     7
 10
921.265197582624
 20
-664.995667135787
 11
921.19287813818
 21
-664.788368176574
 12
921.265197582624
 22
-664.656405391425
 13
921.265197582624
 23
-664.656405391425
  0
SOLID
  8
MOJI
  6
CONTINUOUS
 62
     7
 10
921.19287813818
 20
-658.632414087812
 11
921.19287813818
 21
-658.316147197636
 12
921.265197582624
 22
-658.764753751455
 13
921.265197582624
 23
-658.764753751455
  0
SOLID
  8
MOJI
  6
CONTINUOUS
 62
     7
 10
921.265197582624
 20
-658.764753751455
 11
921.19287813818
 21
-658.316147197636
 12
921.265197582624
 22
-658.436726688015
 13
921.265197582624
 23
-658.436726688015
  0
SOLID
  8
MOJI
  6
CONTINUOUS
 62
     7
 10
921.265197582624
 20
-664.995667135787
 11
921.265197582624
 21
-664.656405391425
 12
921.301357304847
 22
-664.937755080665
 13
921.301357304847
 23
-664.937755080665
  0
SOLID
  8
MOJI
  6
CONTINUOUS
 62
     7
 10
921.301357304847
 20
-664.937755080665
 11
921.265197582624
 21
-664.656405391425
 12
921.301357304847
 22
-664.590423998851
 13
921.301357304847
 23
-664.590423998851
  0
SOLID
  8
MOJI
  6
CONTINUOUS
 62
     7
 10
921.265197582624
 20
-658.764753751455
 11
921.265197582624
 21
-658.436726688015
 12
921.301357304847
 22
-658.844599121825
 13
921.301357304847
 23
-658.844599121825
  0
SOLID
  8
MOJI
  6
CONTINUOUS
 62
     7
 10
921.301357304847
 20
-658.844599121825
 11
921.265197582624
 21
-658.436726688015
 12
921.301357304847
 22
-658.497016433204
 13
921.301357304847
 23
-658.497016433204
  0
SOLID
  8
MOJI
  6
CONTINUOUS
 62
     7
 10
921.301357304847
 20
-664.937755080665
 11
921.301357304847
 21
-664.590423998851
 12
921.409836471513
 22
-664.746746952296
 13
921.409836471513
 23
-664.746746952296
  0
SOLID
  8
MOJI
  6
CONTINUOUS
 62
     7
 10
921.409836471513
 20
-664.746746952296
 11
921.301357304847
 21
-664.590423998851
 12
921.409836471513
 22
-664.340406225082
 13
921.409836471513
 23
-664.340406225082
  0
SOLID
  8
MOJI
  6
CONTINUOUS
 62
     7
 10
921.301357304847
 20
-658.844599121825
 11
921.301357304847
 21
-658.497016433204
 12
921.409836471513
 22
-659.084135232937
 13
921.409836471513
 23
-659.084135232937
  0
SOLID
  8
MOJI
  6
CONTINUOUS
 62
     7
 10
921.409836471513
 20
-659.084135232937
 11
921.301357304847
 21
-658.497016433204
 12
921.409836471513
 22
-658.677885668773
 13
921.409836471513
 23
-658.677885668773
  0
SOLID
  8
MOJI
  6
CONTINUOUS
 62
     7
 10
921.409836471513
 20
-664.746746952296
 11
921.409836471513
 21
-664.340406225082
 12
921.438933747989
 22
-664.695513001197
 13
921.438933747989
 23
-664.695513001197
  0
SOLID
  8
MOJI
  6
CONTINUOUS
 62
     7
 10
921.438933747989
 20
-664.695513001197
 11
921.409836471513
 21
-664.340406225082
 12
921.438933747989
 22
-664.273344165972
 13
921.438933747989
 23
-664.273344165972
  0
SOLID
  8
MOJI
  6
CONTINUOUS
 62
     7
 10
921.409836471513
 20
-659.084135232937
 11
921.409836471513
 21
-658.677885668773
 12
921.438933747989
 22
-659.148385804406
 13
921.438933747989
 23
-659.148385804406
  0
SOLID
  8
MOJI
  6
CONTINUOUS
 62
     7
 10
921.438933747989
 20
-659.148385804406
 11
921.409836471513
 21
-658.677885668773
 12
921.438933747989
 22
-658.73399582927
 13
921.438933747989
 23
-658.73399582927
  0
SOLID
  8
MOJI
  6
CONTINUOUS
 62
     7
 10
921.438933747989
 20
-664.695513001197
 11
921.438933747989
 21
-664.273344165972
 12
921.467748526635
 22
-664.644776467099
 13
921.467748526635
 23
-664.644776467099
  0
SOLID
  8
MOJI
  6
CONTINUOUS
 62
     7
 10
921.467748526635
 20
-664.644776467099
 11
921.438933747989
 21
-664.273344165972
 12
921.467748526635
 22
-664.206933194814
 13
921.467748526635
 23
-664.206933194814
  0
SOLID
  8
MOJI
  6
CONTINUOUS
 62
     7
 10
921.438933747989
 20
-659.148385804406
 11
921.438933747989
 21
-658.73399582927
 12
921.467748526635
 22
-659.22780970993
 13
921.467748526635
 23
-659.22780970993
  0
SOLID
  8
MOJI
  6
CONTINUOUS
 62
     7
 10
921.467748526635
 20
-659.22780970993
 11
921.438933747989
 21
-658.73399582927
 12
921.467748526635
 22
-658.789561230928
 13
921.467748526635
 23
-658.789561230928
  0
SOLID
  8
MOJI
  6
CONTINUOUS
 62
     7
 10
921.467748526635
 20
-664.644776467099
 11
921.467748526635
 21
-664.206933194814
 12
921.510970694603
 22
-664.568671665952
 13
921.510970694603
 23
-664.568671665952
  0
SOLID
  8
MOJI
  6
CONTINUOUS
 62
     7
 10
921.510970694603
 20
-664.568671665952
 11
921.467748526635
 21
-664.206933194814
 12
921.510970694603
 22
-664.087987814604
 13
921.510970694603
 23
-664.087987814604
  0
SOLID
  8
MOJI
  6
CONTINUOUS
 62
     7
 10
921.467748526635
 20
-659.22780970993
 11
921.467748526635
 21
-658.789561230928
 12
921.510970694603
 22
-659.346945568216
 13
921.510970694603
 23
-659.346945568216
  0
SOLID
  8
MOJI
  6
CONTINUOUS
 62
     7
 10
921.510970694603
 20
-659.346945568216
 11
921.467748526635
 21
-658.789561230928
 12
921.510970694603
 22
-658.872909333415
 13
921.510970694603
 23
-658.872909333415
  0
SOLID
  8
MOJI
  6
CONTINUOUS
 62
     7
 10
921.510970694603
 20
-664.568671665952
 11
921.510970694603
 21
-664.087987814604
 12
921.583290139048
 22
-664.418156822202
 13
921.583290139048
 23
-664.418156822202
  0
SOLID
  8
MOJI
  6
CONTINUOUS
 62
     7
 10
921.583290139048
 20
-664.418156822202
 11
921.510970694603
 21
-664.087987814604
 12
921.583290139048
 22
-663.888968093467
 13
921.583290139048
 23
-663.888968093467
  0
SOLID
  8
MOJI
  6
CONTINUOUS
 62
     7
 10
921.510970694603
 20
-659.346945568216
 11
921.510970694603
 21
-658.872909333415
 12
921.583290139048
 22
-659.546283997766
 13
921.583290139048
 23
-659.546283997766
  0
SOLID
  8
MOJI
  6
CONTINUOUS
 62
     7
 10
921.583290139048
 20
-659.546283997766
 11
921.510970694603
 21
-658.872909333415
 12
921.583290139048
 22
-659.012367596399
 13
921.583290139048
 23
-659.012367596399
  0
SOLID
  8
MOJI
  6
CONTINUOUS
 62
     7
 10
921.583290139048
 20
-664.418156822202
 11
921.583290139048
 21
-663.888968093467
 12
921.605042471947
 22
-664.372884779355
 13
921.605042471947
 23
-664.372884779355
  0
SOLID
  8
MOJI
  6
CONTINUOUS
 62
     7
 10
921.605042471947
 20
-664.372884779355
 11
921.583290139048
 21
-663.888968093467
 12
921.605042471947
 22
-663.829106692968
 13
921.605042471947
 23
-663.829106692968
  0
SOLID
  8
MOJI
  6
CONTINUOUS
 62
     7
 10
921.583290139048
 20
-659.546283997766
 11
921.583290139048
 21
-659.012367596399
 12
921.605042471947
 22
-659.617877111781
 13
921.605042471947
 23
-659.617877111781
  0
SOLID
  8
MOJI
  6
CONTINUOUS
 62
     7
 10
921.605042471947
 20
-659.617877111781
 11
921.583290139048
 21
-659.012367596399
 12
921.605042471947
 22
-659.054314027063
 13
921.605042471947
 23
-659.054314027063
  0
SOLID
  8
MOJI
  6
CONTINUOUS
 62
     7
 10
921.605042471947
 20
-664.372884779355
 11
921.605042471947
 21
-663.829106692968
 12
921.612387415524
 22
-664.357598115536
 13
921.612387415524
 23
-664.357598115536
  0
SOLID
  8
MOJI
  6
CONTINUOUS
 62
     7
 10
921.612387415524
 20
-664.357598115536
 11
921.605042471947
 21
-663.829106692968
 12
921.612387415524
 22
-663.80889375254
 13
921.612387415524
 23
-663.80889375254
  0
SOLID
  8
MOJI
  6
CONTINUOUS
 62
     7
 10
921.605042471947
 20
-659.617877111781
 11
921.605042471947
 21
-659.054314027063
 12
921.612387415524
 22
-659.64205141002
 13
921.612387415524
 23
-659.64205141002
  0
SOLID
  8
MOJI
  6
CONTINUOUS
 62
     7
 10
921.612387415524
 20
-659.64205141002
 11
921.605042471947
 21
-659.054314027063
 12
921.612387415524
 22
-659.071242313829
 13
921.612387415524
 23
-659.071242313829
  0
SOLID
  8
MOJI
  6
CONTINUOUS
 62
     7
 10
921.612387415524
 20
-664.357598115536
 11
921.612387415524
 21
-663.80889375254
 12
921.691769305715
 22
-664.192384556577
 13
921.691769305715
 23
-664.192384556577
  0
SOLID
  8
MOJI
  6
CONTINUOUS
 62
     7
 10
921.691769305715
 20
-664.192384556577
 11
921.612387415524
 21
-663.80889375254
 12
921.691769305715
 22
-663.525428592091
 13
921.691769305715
 23
-663.525428592091
  0
SOLID
  8
MOJI
  6
CONTINUOUS
 62
     7
 10
921.612387415524
 20
-659.64205141002
 11
921.612387415524
 21
-659.071242313829
 12
921.691769305715
 22
-659.903319787139
 13
921.691769305715
 23
-659.903319787139
  0
SOLID
  8
MOJI
  6
CONTINUOUS
 62
     7
 10
921.691769305715
 20
-659.903319787139
 11
921.612387415524
 21
-659.071242313829
 12
921.691769305715
 22
-659.254198028488
 13
921.691769305715
 23
-659.254198028488
  0
SOLID
  8
MOJI
  6
CONTINUOUS
 62
     7
 10
921.691769305715
 20
-664.192384556577
 11
921.691769305715
 21
-663.525428592091
 12
921.706459192867
 22
-664.154608610711
 13
921.706459192867
 23
-664.154608610711
  0
SOLID
  8
MOJI
  6
CONTINUOUS
 62
     7
 10
921.706459192867
 20
-664.154608610711
 11
921.691769305715
 21
-663.525428592091
 12
921.706459192867
 22
-663.472972405815
 13
921.706459192867
 23
-663.472972405815
  0
SOLID
  8
MOJI
  6
CONTINUOUS
 62
     7
 10
921.691769305715
 20
-659.903319787139
 11
921.691769305715
 21
-659.254198028488
 12
921.706459192867
 22
-659.951668383616
 13
921.706459192867
 23
-659.951668383616
  0
SOLID
  8
MOJI
  6
CONTINUOUS
 62
     7
 10
921.706459192867
 20
-659.951668383616
 11
921.691769305715
 21
-659.254198028488
 12
921.706459192867
 22
-659.288054602019
 13
921.706459192867
 23
-659.288054602019
  0
SOLID
  8
MOJI
  6
CONTINUOUS
 62
     7
 10
921.706459192867
 20
-664.154608610711
 11
921.706459192867
 21
-663.472972405815
 12
921.727929027937
 22
-664.099397612907
 13
921.727929027937
 23
-664.099397612907
  0
SOLID
  8
MOJI
  6
CONTINUOUS
 62
     7
 10
921.727929027937
 20
-664.099397612907
 11
921.706459192867
 21
-663.472972405815
 12
921.727929027937
 22
-663.396305672028
 13
921.727929027937
 23
-663.396305672028
  0
SOLID
  8
MOJI
  6
CONTINUOUS
 62
     7
 10
921.706459192867
 20
-659.951668383616
 11
921.706459192867
 21
-659.288054602019
 12
921.727929027937
 22
-660.047732961917
 13
921.727929027937
 23
-660.047732961917
  0
SOLID
  8
MOJI
  6
CONTINUOUS
 62
     7
 10
921.727929027937
 20
-660.047732961917
 11
921.706459192867
 21
-659.288054602019
 12
921.727929027937
 22
-659.337537286411
 13
921.727929027937
 23
-659.337537286411
  0
SOLID
  8
MOJI
  6
CONTINUOUS
 62
     7
 10
921.727929027937
 20
-664.099397612907
 11
921.727929027937
 21
-663.396305672028
 12
921.771433693735
 22
-663.987522696304
 13
921.771433693735
 23
-663.987522696304
  0
SOLID
  8
MOJI
  6
CONTINUOUS
 62
     7
 10
921.771433693735
 20
-663.987522696304
 11
921.727929027937
 21
-663.396305672028
 12
921.771433693735
 22
-663.185796938986
 13
921.771433693735
 23
-663.185796938986
  0
SOLID
  8
MOJI
  6
CONTINUOUS
 62
     7
 10
921.727929027937
 20
-660.047732961917
 11
921.727929027937
 21
-659.337537286411
 12
921.771433693735
 22
-660.242390133735
 13
921.771433693735
 23
-660.242390133735
  0
SOLID
  8
MOJI
  6
CONTINUOUS
 62
     7
 10
921.771433693735
 20
-660.242390133735
 11
921.727929027937
 21
-659.337537286411
 12
921.771433693735
 22
-659.437804831099
 13
921.771433693735
 23
-659.437804831099
  0
SOLID
  8
MOJI
  6
CONTINUOUS
 62
     7
 10
921.771433693735
 20
-663.987522696304
 11
921.771433693735
 21
-663.185796938986
 12
921.800248472381
 22
-663.913423725567
 13
921.800248472381
 23
-663.913423725567
  0
SOLID
  8
MOJI
  6
CONTINUOUS
 62
     7
 10
921.800248472381
 20
-663.913423725567
 11
921.771433693735
 21
-663.185796938986
 12
921.800248472381
 22
-663.046369076842
 13
921.800248472381
 23
-663.046369076842
  0
SOLID
  8
MOJI
  6
CONTINUOUS
 62
     7
 10
921.771433693735
 20
-660.242390133735
 11
921.771433693735
 21
-659.437804831099
 12
921.800248472381
 22
-660.371318909875
 13
921.800248472381
 23
-660.371318909875
  0
SOLID
  8
MOJI
  6
CONTINUOUS
 62
     7
 10
921.800248472381
 20
-660.371318909875
 11
921.771433693735
 21
-659.437804831099
 12
921.800248472381
 22
-659.519832086771
 13
921.800248472381
 23
-659.519832086771
  0
SOLID
  8
MOJI
  6
CONTINUOUS
 62
     7
 10
921.800248472381
 20
-663.913423725567
 11
921.800248472381
 21
-663.046369076842
 12
921.814655861704
 22
-663.876374240198
 13
921.814655861704
 23
-663.876374240198
  0
SOLID
  8
MOJI
  6
CONTINUOUS
 62
     7
 10
921.814655861704
 20
-663.876374240198
 11
921.800248472381
 21
-663.046369076842
 12
921.814655861704
 22
-662.976655145769
 13
921.814655861704
 23
-662.976655145769
  0
SOLID
  8
MOJI
  6
CONTINUOUS
 62
     7
 10
921.800248472381
 20
-660.371318909875
 11
921.800248472381
 21
-659.519832086771
 12
921.814655861704
 22
-660.467181063076
 13
921.814655861704
 23
-660.467181063076
  0
SOLID
  8
MOJI
  6
CONTINUOUS
 62
     7
 10
921.814655861704
 20
-660.467181063076
 11
921.800248472381
 21
-659.519832086771
 12
921.814655861704
 22
-659.560845714607
 13
921.814655861704
 23
-659.560845714607
  0
SOLID
  8
MOJI
  6
CONTINUOUS
 62
     7
 10
921.814655861704
 20
-663.876374240198
 11
921.814655861704
 21
-662.976655145769
 12
921.84375313818
 22
-663.801548808964
 13
921.84375313818
 23
-663.801548808964
  0
SOLID
  8
MOJI
  6
CONTINUOUS
 62
     7
 10
921.84375313818
 20
-663.801548808964
 11
921.814655861704
 21
-662.976655145769
 12
921.84375313818
 22
-662.779776171174
 13
921.84375313818
 23
-662.779776171174
  0
SOLID
  8
MOJI
  6
CONTINUOUS
 62
     7
 10
921.814655861704
 20
-660.467181063076
 11
921.814655861704
 21
-659.560845714607
 12
921.84375313818
 22
-660.66078501954
 13
921.84375313818
 23
-660.66078501954
  0
SOLID
  8
MOJI
  6
CONTINUOUS
 62
     7
 10
921.84375313818
 20
-660.66078501954
 11
921.814655861704
 21
-659.560845714607
 12
921.84375313818
 22
-659.64367715906
 13
921.84375313818
 23
-659.64367715906
  0
SOLID
  8
MOJI
  6
CONTINUOUS
 62
     7
 10
921.84375313818
 20
-663.801548808964
 11
921.84375313818
 21
-662.779776171174
 12
921.865505471079
 22
-663.731091252515
 13
921.865505471079
 23
-663.731091252515
  0
SOLID
  8
MOJI
  6
CONTINUOUS
 62
     7
 10
921.865505471079
 20
-663.731091252515
 11
921.84375313818
 21
-662.779776171174
 12
921.865505471079
 22
-662.632594801817
 13
921.865505471079
 23
-662.632594801817
  0
SOLID
  8
MOJI
  6
CONTINUOUS
 62
     7
 10
921.84375313818
 20
-660.66078501954
 11
921.84375313818
 21
-659.64367715906
 12
921.865505471079
 22
-660.805518074372
 13
921.865505471079
 23
-660.805518074372
  0
SOLID
  8
MOJI
  6
CONTINUOUS
 62
     7
 10
921.865505471079
 20
-660.805518074372
 11
921.84375313818
 21
-659.64367715906
 12
921.865505471079
 22
-659.705599695204
 13
921.865505471079
 23
-659.705599695204
  0
SOLID
  8
MOJI
  6
CONTINUOUS
 62
     7
 10
921.865505471079
 20
-663.731091252515
 11
921.865505471079
 21
-662.632594801817
 12
921.879912860402
 22
-663.684424559283
 13
921.879912860402
 23
-663.684424559283
  0
SOLID
  8
MOJI
  6
CONTINUOUS
 62
     7
 10
921.879912860402
 20
-663.684424559283
 11
921.865505471079
 21
-662.632594801817
 12
921.879912860402
 22
-662.535111037696
 13
921.879912860402
 23
-662.535111037696
  0
SOLID
  8
MOJI
  6
CONTINUOUS
 62
     7
 10
921.865505471079
 20
-660.805518074372
 11
921.865505471079
 21
-659.705599695204
 12
921.879912860402
 22
-660.955100675284
 13
921.879912860402
 23
-660.955100675284
  0
SOLID
  8
MOJI
  6
CONTINUOUS
 62
     7
 10
921.879912860402
 20
-660.955100675284
 11
921.865505471079
 21
-659.705599695204
 12
921.879912860402
 22
-659.74661332304
 13
921.879912860402
 23
-659.74661332304
  0
SOLID
  8
MOJI
  6
CONTINUOUS
 62
     7
 10
921.879912860402
 20
-663.684424559283
 11
921.879912860402
 21
-662.535111037696
 12
921.908727639048
 22
-663.591091172819
 13
921.908727639048
 23
-663.591091172819
  0
SOLID
  8
MOJI
  6
CONTINUOUS
 62
     7
 10
921.908727639048
 20
-663.591091172819
 11
921.879912860402
 21
-662.535111037696
 12
921.908727639048
 22
-662.183368134305
 13
921.908727639048
 23
-662.183368134305
  0
SOLID
  8
MOJI
  6
CONTINUOUS
 62
     7
 10
921.879912860402
 20
-660.955100675284
 11
921.879912860402
 21
-659.74661332304
 12
921.908727639048
 22
-661.254265877106
 13
921.908727639048
 23
-661.254265877106
  0
SOLID
  8
MOJI
  6
CONTINUOUS
 62
     7
 10
921.908727639048
 20
-661.254265877106
 11
921.879912860402
 21
-659.74661332304
 12
921.908727639048
 22
-659.828640578712
 13
921.908727639048
 23
-659.828640578712
  0
SOLID
  8
MOJI
  6
CONTINUOUS
 62
     7
 10
921.908727639048
 20
-663.591091172819
 11
921.908727639048
 21
-662.183368134305
 12
921.916072582624
 22
-663.567300309602
 13
921.916072582624
 23
-663.567300309602
  0
SOLID
  8
MOJI
  6
CONTINUOUS
 62
     7
 10
921.916072582624
 20
-663.567300309602
 11
921.908727639048
 21
-662.183368134305
 12
921.916072582624
 22
-662.093708178538
 13
921.916072582624
 23
-662.093708178538
  0
SOLID
  8
MOJI
  6
CONTINUOUS
 62
     7
 10
921.908727639048
 20
-661.254265877106
 11
921.908727639048
 21
-659.828640578712
 12
921.916072582624
 22
-661.486711738525
 13
921.916072582624
 23
-661.486711738525
  0
SOLID
  8
MOJI
  6
CONTINUOUS
 62
     7
 10
921.916072582624
 20
-661.486711738525
 11
921.908727639048
 21
-659.828640578712
 12
921.916072582624
 22
-659.854338923981
 13
921.916072582624
 23
-659.854338923981
  0
SOLID
  8
MOJI
  6
CONTINUOUS
 62
     7
 10
921.916072582624
 20
-663.567300309602
 11
921.916072582624
 21
-662.093708178538
 12
921.923135028371
 22
-663.544424479587
 13
921.923135028371
 23
-663.544424479587
  0
SOLID
  8
MOJI
  6
CONTINUOUS
 62
     7
 10
921.923135028371
 20
-663.544424479587
 11
921.916072582624
 21
-662.093708178538
 12
921.923135028371
 22
-661.710217374502
 13
921.923135028371
 23
-661.710217374502
  0
SOLID
  8
MOJI
  6
CONTINUOUS
 62
     7
 10
921.916072582624
 20
-661.486711738525
 11
921.916072582624
 21
-659.854338923981
 12
921.923135028371
 22
-661.710217374502
 13
921.923135028371
 23
-661.710217374502
  0
SOLID
  8
MOJI
  6
CONTINUOUS
 62
     7
 10
921.923135028371
 20
-661.710217374502
 11
921.916072582624
 21
-659.854338923981
 12
921.923135028371
 22
-659.879048871355
 13
921.923135028371
 23
-659.879048871355
  0
SOLID
  8
MOJI
  6
CONTINUOUS
 62
     7
 10
921.923135028371
 20
-663.544424479587
 11
921.923135028371
 21
-659.879048871355
 12
921.96663969417
 22
-663.403509366689
 13
921.96663969417
 23
-663.403509366689
  0
SOLID
  8
MOJI
  6
CONTINUOUS
 62
     7
 10
921.96663969417
 20
-663.403509366689
 11
921.923135028371
 21
-659.879048871355
 12
921.96663969417
 22
-660.03126214718
 13
921.96663969417
 23
-660.03126214718
  0
SOLID
  8
MOJI
  6
CONTINUOUS
 62
     7
 10
921.96663969417
 20
-663.403509366689
 11
921.96663969417
 21
-660.03126214718
 12
922.024551749291
 22
-663.17145673241
 13
922.024551749291
 23
-663.17145673241
  0
SOLID
  8
MOJI
  6
CONTINUOUS
 62
     7
 10
922.024551749291
 20
-663.17145673241
 11
921.96663969417
 21
-660.03126214718
 12
922.024551749291
 22
-660.233883715648
 13
922.024551749291
 23
-660.233883715648
  0
SOLID
  8
MOJI
  6
CONTINUOUS
 62
     7
 10
922.024551749291
 20
-663.17145673241
 11
922.024551749291
 21
-660.233883715648
 12
922.06777391726
 22
-662.998266229754
 13
922.06777391726
 23
-662.998266229754
  0
SOLID
  8
MOJI
  6
CONTINUOUS
 62
     7
 10
922.06777391726
 20
-662.998266229754
 11
922.024551749291
 21
-660.233883715648
 12
922.06777391726
 22
-660.458454410432
 13
922.06777391726
 23
-660.458454410432
  0
SOLID
  8
MOJI
  6
CONTINUOUS
 62
     7
 10
922.06777391726
 20
-662.998266229754
 11
922.06777391726
 21
-660.458454410432
 12
922.103933639482
 22
-662.765732604814
 13
922.103933639482
 23
-662.765732604814
  0
SOLID
  8
MOJI
  6
CONTINUOUS
 62
     7
 10
922.103933639482
 20
-662.765732604814
 11
922.06777391726
 21
-660.458454410432
 12
922.103933639482
 22
-660.646330547245
 13
922.103933639482
 23
-660.646330547245
  0
SOLID
  8
MOJI
  6
CONTINUOUS
 62
     7
 10
922.103933639482
 20
-662.765732604814
 11
922.103933639482
 21
-660.646330547245
 12
922.133030915958
 22
-662.578615703495
 13
922.133030915958
 23
-662.578615703495
  0
SOLID
  8
MOJI
  6
CONTINUOUS
 62
     7
 10
922.133030915958
 20
-662.578615703495
 11
922.103933639482
 21
-660.646330547245
 12
922.133030915958
 22
-660.860869734528
 13
922.133030915958
 23
-660.860869734528
  0
SOLID
  8
MOJI
  6
CONTINUOUS
 62
     7
 10
922.133030915958
 20
-662.578615703495
 11
922.133030915958
 21
-660.860869734528
 12
922.161845694603
 22
-662.293952056939
 13
922.161845694603
 23
-662.293952056939
  0
SOLID
  8
MOJI
  6
CONTINUOUS
 62
     7
 10
922.161845694603
 20
-662.293952056939
 11
922.133030915958
 21
-660.860869734528
 12
922.161845694603
 22
-661.07332601708
 13
922.161845694603
 23
-661.07332601708
  0
SOLID
  8
MOJI
  6
CONTINUOUS
 62
     7
 10
922.161845694603
 20
-662.293952056939
 11
922.161845694603
 21
-661.07332601708
 12
922.176253083926
 22
-662.15162023366
 13
922.176253083926
 23
-662.15162023366
  0
SOLID
  8
MOJI
  6
CONTINUOUS
 62
     7
 10
922.176253083926
 20
-662.15162023366
 11
922.161845694603
 21
-661.07332601708
 12
922.176253083926
 22
-661.286823751998
 13
922.176253083926
 23
-661.286823751998
  0
SOLID
  8
MOJI
  6
CONTINUOUS
 62
     7
 10
922.176253083926
 20
-662.15162023366
 11
922.176253083926
 21
-661.286823751998
 12
922.190660473249
 22
-661.710217374502
 13
922.190660473249
 23
-661.710217374502
  0
SOLID
  8
MOJI
  6
CONTINUOUS
 62
     7
 10
922.190660473249
 20
-661.710217374502
 11
922.176253083926
 21
-661.286823751998
 12
922.190660473249
 22
-661.500321486915
 13
922.190660473249
 23
-661.500321486915
  0
ENDBLK
  8
0
  0
BLOCK
  8
0
  2
*U34
 70
     1
 10
0.0
 20
0.0
  0
SOLID
  8
MOJI
  6
CONTINUOUS
 62
     7
 10
917.158809127763
 20
-659.491571743482
 11
917.122649405541
 21
-659.445008525761
 12
917.158809127763
 22
-659.358140443078
 13
917.158809127763
 23
-659.358140443078
  0
SOLID
  8
MOJI
  6
CONTINUOUS
 62
     7
 10
917.158809127763
 20
-659.491571743482
 11
917.158809127763
 21
-659.358140443078
 12
917.223783628631
 22
-659.575240025327
 13
917.223783628631
 23
-659.575240025327
  0
SOLID
  8
MOJI
  6
CONTINUOUS
 62
     7
 10
917.223783628631
 20
-659.575240025327
 11
917.158809127763
 21
-659.358140443078
 12
917.223783628631
 22
-659.399965889218
 13
917.223783628631
 23
-659.399965889218
  0
SOLID
  8
MOJI
  6
CONTINUOUS
 62
     7
 10
917.223783628631
 20
-659.575240025327
 11
917.223783628631
 21
-659.399965889218
 12
917.426334572642
 22
-659.864800300934
 13
917.426334572642
 23
-659.864800300934
  0
SOLID
  8
MOJI
  6
CONTINUOUS
 62
     7
 10
917.426334572642
 20
-659.864800300934
 11
917.223783628631
 21
-659.399965889218
 12
917.426334572642
 22
-659.530352171316
 13
917.426334572642
 23
-659.530352171316
  0
SOLID
  8
MOJI
  6
CONTINUOUS
 62
     7
 10
917.426334572642
 20
-659.864800300934
 11
917.426334572642
 21
-659.530352171316
 12
917.462494294864
 22
-659.937252360497
 13
917.462494294864
 23
-659.937252360497
  0
SOLID
  8
MOJI
  6
CONTINUOUS
 62
     7
 10
917.462494294864
 20
-659.937252360497
 11
917.426334572642
 21
-659.530352171316
 12
917.462494294864
 22
-659.553628941342
 13
917.462494294864
 23
-659.553628941342
  0
SOLID
  8
MOJI
  6
CONTINUOUS
 62
     7
 10
917.462494294864
 20
-659.937252360497
 11
917.462494294864
 21
-659.553628941342
 12
917.541876185055
 22
-660.096307272505
 13
917.541876185055
 23
-660.096307272505
  0
SOLID
  8
MOJI
  6
CONTINUOUS
 62
     7
 10
917.541876185055
 20
-660.096307272505
 11
917.462494294864
 21
-659.553628941342
 12
917.541876185055
 22
-659.630587696912
 13
917.541876185055
 23
-659.630587696912
  0
SOLID
  8
MOJI
  6
CONTINUOUS
 62
     7
 10
917.541876185055
 20
-660.096307272505
 11
917.541876185055
 21
-659.630587696912
 12
917.657700295298
 22
-660.458186992558
 13
917.657700295298
 23
-660.458186992558
  0
SOLID
  8
MOJI
  6
CONTINUOUS
 62
     7
 10
917.657700295298
 20
-660.458186992558
 11
917.541876185055
 21
-659.630587696912
 12
917.657700295298
 22
-659.742876272654
 13
917.657700295298
 23
-659.742876272654
  0
SOLID
  8
MOJI
  6
CONTINUOUS
 62
     7
 10
917.657700295298
 20
-660.458186992558
 11
917.657700295298
 21
-659.742876272654
 12
917.672107684621
 22
-660.552258769901
 13
917.672107684621
 23
-660.552258769901
  0
SOLID
  8
MOJI
  6
CONTINUOUS
 62
     7
 10
917.672107684621
 20
-660.552258769901
 11
917.657700295298
 21
-659.742876272654
 12
917.672107684621
 22
-659.756843875978
 13
917.672107684621
 23
-659.756843875978
  0
SOLID
  8
MOJI
  6
CONTINUOUS
 62
     7
 10
917.672107684621
 20
-660.552258769901
 11
917.672107684621
 21
-659.756843875978
 12
917.69386001752
 22
-660.596889288867
 13
917.69386001752
 23
-660.596889288867
  0
SOLID
  8
MOJI
  6
CONTINUOUS
 62
     7
 10
917.69386001752
 20
-660.596889288867
 11
917.672107684621
 21
-659.756843875978
 12
917.69386001752
 22
-659.777932218252
 13
917.69386001752
 23
-659.777932218252
  0
SOLID
  8
MOJI
  6
CONTINUOUS
 62
     7
 10
917.69386001752
 20
-660.596889288867
 11
917.69386001752
 21
-659.777932218252
 12
917.81674657351
 22
-660.84902274017
 13
917.81674657351
 23
-660.84902274017
  0
SOLID
  8
MOJI
  6
CONTINUOUS
 62
     7
 10
917.81674657351
 20
-660.84902274017
 11
917.69386001752
 21
-659.777932218252
 12
917.81674657351
 22
-659.951668383616
 13
917.81674657351
 23
-659.951668383616
  0
SOLID
  8
MOJI
  6
CONTINUOUS
 62
     7
 10
917.81674657351
 20
-660.84902274017
 11
917.81674657351
 21
-659.951668383616
 12
917.859968741478
 22
-660.841677796594
 13
917.859968741478
 23
-660.841677796594
  0
SOLID
  8
MOJI
  6
CONTINUOUS
 62
     7
 10
917.859968741478
 20
-660.841677796594
 11
917.81674657351
 21
-659.951668383616
 12
917.859968741478
 22
-660.065711954696
 13
917.859968741478
 23
-660.065711954696
  0
SOLID
  8
MOJI
  6
CONTINUOUS
 62
     7
 10
917.859968741478
 20
-660.841677796594
 11
917.859968741478
 21
-660.065711954696
 12
917.975792851722
 22
-660.597517712347
 13
917.975792851722
 23
-660.597517712347
  0
SOLID
  8
MOJI
  6
CONTINUOUS
 62
     7
 10
917.975792851722
 20
-660.597517712347
 11
917.859968741478
 21
-660.065711954696
 12
917.975792851722
 22
-660.371318909875
 13
917.975792851722
 23
-660.371318909875
  0
SOLID
  8
MOJI
  6
CONTINUOUS
 62
     7
 10
917.975792851722
 20
-660.597517712347
 11
917.975792851722
 21
-660.371318909875
 12
917.997262686791
 22
-660.552258769901
 13
917.997262686791
 23
-660.552258769901
  0
ENDBLK
  8
0
  0
BLOCK
  8
0
  2
*U35
 70
     1
 10
0.0
 20
0.0
  0
SOLID
  8
MOJI
  6
CONTINUOUS
 62
     7
 10
917.599788240176
 20
-663.651928349923
 11
917.476901684187
 21
-663.620750197853
 12
917.599788240176
 22
-663.577245532054
 13
917.599788240176
 23
-663.577245532054
  0
SOLID
  8
MOJI
  6
CONTINUOUS
 62
     7
 10
917.599788240176
 20
-663.651928349923
 11
917.599788240176
 21
-663.577245532054
 12
917.79499424061
 22
-663.701455023671
 13
917.79499424061
 23
-663.701455023671
  0
SOLID
  8
MOJI
  6
CONTINUOUS
 62
     7
 10
917.79499424061
 20
-663.701455023671
 11
917.599788240176
 21
-663.577245532054
 12
917.79499424061
 22
-663.43246539425
 13
917.79499424061
 23
-663.43246539425
  0
SOLID
  8
MOJI
  6
CONTINUOUS
 62
     7
 10
917.79499424061
 20
-663.701455023671
 11
917.79499424061
 21
-663.43246539425
 12
917.990200241044
 22
-663.750981697419
 13
917.990200241044
 23
-663.750981697419
  0
SOLID
  8
MOJI
  6
CONTINUOUS
 62
     7
 10
917.990200241044
 20
-663.750981697419
 11
917.79499424061
 21
-663.43246539425
 12
917.990200241044
 22
-663.258772324374
 13
917.990200241044
 23
-663.258772324374
  0
SOLID
  8
MOJI
  6
CONTINUOUS
 62
     7
 10
917.990200241044
 20
-663.750981697419
 11
917.990200241044
 21
-663.258772324374
 12
918.055174741913
 22
-663.685932513216
 13
918.055174741913
 23
-663.685932513216
  0
SOLID
  8
MOJI
  6
CONTINUOUS
 62
     7
 10
918.055174741913
 20
-663.685932513216
 11
917.990200241044
 21
-663.258772324374
 12
918.055174741913
 22
-663.200958422679
 13
918.055174741913
 23
-663.200958422679
  0
SOLID
  8
MOJI
  6
CONTINUOUS
 62
     7
 10
918.055174741913
 20
-663.685932513216
 11
918.055174741913
 21
-663.200958422679
 12
918.235973353024
 22
-663.50492608761
 13
918.235973353024
 23
-663.50492608761
  0
SOLID
  8
MOJI
  6
CONTINUOUS
 62
     7
 10
918.235973353024
 20
-663.50492608761
 11
918.055174741913
 21
-663.200958422679
 12
918.235973353024
 22
-663.024083392538
 13
918.235973353024
 23
-663.024083392538
  0
SOLID
  8
MOJI
  6
CONTINUOUS
 62
     7
 10
918.235973353024
 20
-663.50492608761
 11
918.235973353024
 21
-663.024083392538
 12
918.380612241913
 22
-663.347021501811
 13
918.380612241913
 23
-663.347021501811
  0
SOLID
  8
MOJI
  6
CONTINUOUS
 62
     7
 10
918.380612241913
 20
-663.347021501811
 11
918.235973353024
 21
-663.024083392538
 12
918.380612241913
 22
-662.882583368426
 13
918.380612241913
 23
-662.882583368426
  0
SOLID
  8
MOJI
  6
CONTINUOUS
 62
     7
 10
918.380612241913
 20
-663.347021501811
 11
918.380612241913
 21
-662.882583368426
 12
918.474684019256
 22
-663.244321839563
 13
918.474684019256
 23
-663.244321839563
  0
SOLID
  8
MOJI
  6
CONTINUOUS
 62
     7
 10
918.474684019256
 20
-663.244321839563
 11
918.380612241913
 21
-662.882583368426
 12
918.474684019256
 22
-662.78314919335
 13
918.474684019256
 23
-662.78314919335
  0
SOLID
  8
MOJI
  6
CONTINUOUS
 62
     7
 10
918.474684019256
 20
-663.244321839563
 11
918.474684019256
 21
-662.78314919335
 12
918.640792743215
 22
-663.057843147678
 13
918.640792743215
 23
-663.057843147678
  0
SOLID
  8
MOJI
  6
CONTINUOUS
 62
     7
 10
918.640792743215
 20
-663.057843147678
 11
918.474684019256
 21
-662.78314919335
 12
918.640792743215
 22
-662.607571731056
 13
918.640792743215
 23
-662.607571731056
  0
SOLID
  8
MOJI
  6
CONTINUOUS
 62
     7
 10
918.640792743215
 20
-663.057843147678
 11
918.640792743215
 21
-662.607571731056
 12
918.713112187659
 22
-662.976655145769
 13
918.713112187659
 23
-662.976655145769
  0
SOLID
  8
MOJI
  6
CONTINUOUS
 62
     7
 10
918.713112187659
 20
-662.976655145769
 11
918.640792743215
 21
-662.607571731056
 12
918.713112187659
 22
-662.525553194453
 13
918.713112187659
 23
-662.525553194453
  0
SOLID
  8
MOJI
  6
CONTINUOUS
 62
     7
 10
918.713112187659
 20
-662.976655145769
 11
918.713112187659
 21
-662.525553194453
 12
918.857751076548
 22
-662.80473089872
 13
918.857751076548
 23
-662.80473089872
  0
SOLID
  8
MOJI
  6
CONTINUOUS
 62
     7
 10
918.857751076548
 20
-662.80473089872
 11
918.713112187659
 21
-662.525553194453
 12
918.857751076548
 22
-662.361516121247
 13
918.857751076548
 23
-662.361516121247
  0
SOLID
  8
MOJI
  6
CONTINUOUS
 62
     7
 10
918.857751076548
 20
-662.80473089872
 11
918.857751076548
 21
-662.361516121247
 12
918.944477910315
 22
-662.701643508399
 13
918.944477910315
 23
-662.701643508399
  0
SOLID
  8
MOJI
  6
CONTINUOUS
 62
     7
 10
918.944477910315
 20
-662.701643508399
 11
918.857751076548
 21
-662.361516121247
 12
918.944477910315
 22
-662.263469959238
 13
918.944477910315
 23
-662.263469959238
  0
SOLID
  8
MOJI
  6
CONTINUOUS
 62
     7
 10
918.944477910315
 20
-662.701643508399
 11
918.944477910315
 21
-662.263469959238
 12
919.081771855628
 22
-662.528684301127
 13
919.081771855628
 23
-662.528684301127
  0
SOLID
  8
MOJI
  6
CONTINUOUS
 62
     7
 10
919.081771855628
 20
-662.528684301127
 11
918.944477910315
 21
-662.263469959238
 12
919.081771855628
 22
-662.108256816776
 13
919.081771855628
 23
-662.108256816776
  0
SOLID
  8
MOJI
  6
CONTINUOUS
 62
     7
 10
919.081771855628
 20
-662.528684301127
 11
919.081771855628
 21
-662.108256816776
 12
919.168498689395
 22
-662.419428176368
 13
919.168498689395
 23
-662.419428176368
  0
SOLID
  8
MOJI
  6
CONTINUOUS
 62
     7
 10
919.168498689395
 20
-662.419428176368
 11
919.081771855628
 21
-662.108256816776
 12
919.168498689395
 22
-661.998323779442
 13
919.168498689395
 23
-661.998323779442
  0
SOLID
  8
MOJI
  6
CONTINUOUS
 62
     7
 10
919.168498689395
 20
-662.419428176368
 11
919.168498689395
 21
-661.998323779442
 12
919.298730188961
 22
-662.245616604682
 13
919.298730188961
 23
-662.245616604682
  0
SOLID
  8
MOJI
  6
CONTINUOUS
 62
     7
 10
919.298730188961
 20
-662.245616604682
 11
919.168498689395
 21
-661.998323779442
 12
919.298730188961
 22
-661.833245179407
 13
919.298730188961
 23
-661.833245179407
  0
SOLID
  8
MOJI
  6
CONTINUOUS
 62
     7
 10
919.298730188961
 20
-662.245616604682
 11
919.298730188961
 21
-661.833245179407
 12
919.385457022728
 22
-662.129867900761
 13
919.385457022728
 23
-662.129867900761
  0
SOLID
  8
MOJI
  6
CONTINUOUS
 62
     7
 10
919.385457022728
 20
-662.129867900761
 11
919.298730188961
 21
-661.833245179407
 12
919.385457022728
 22
-661.723934371903
 13
919.385457022728
 23
-661.723934371903
  0
SOLID
  8
MOJI
  6
CONTINUOUS
 62
     7
 10
919.385457022728
 20
-662.129867900761
 11
919.385457022728
 21
-661.723934371903
 12
919.522750968041
 22
-661.937513362797
 13
919.522750968041
 23
-661.937513362797
  0
SOLID
  8
MOJI
  6
CONTINUOUS
 62
     7
 10
919.522750968041
 20
-661.937513362797
 11
919.385457022728
 21
-661.723934371903
 12
919.522750968041
 22
-661.55088859846
 13
919.522750968041
 23
-661.55088859846
  0
SOLID
  8
MOJI
  6
CONTINUOUS
 62
     7
 10
919.522750968041
 20
-661.937513362797
 11
919.522750968041
 21
-661.55088859846
 12
919.602415356062
 22
-661.82590023583
 13
919.602415356062
 23
-661.82590023583
  0
SOLID
  8
MOJI
  6
CONTINUOUS
 62
     7
 10
919.602415356062
 20
-661.82590023583
 11
919.522750968041
 21
-661.55088859846
 12
919.602415356062
 22
-661.441972442963
 13
919.602415356062
 23
-661.441972442963
  0
SOLID
  8
MOJI
  6
CONTINUOUS
 62
     7
 10
919.602415356062
 20
-661.82590023583
 11
919.602415356062
 21
-661.441972442963
 12
919.739709301374
 22
-661.622087188981
 13
919.739709301374
 23
-661.622087188981
  0
SOLID
  8
MOJI
  6
CONTINUOUS
 62
     7
 10
919.739709301374
 20
-661.622087188981
 11
919.602415356062
 21
-661.441972442963
 12
919.739709301374
 22
-661.254265877106
 13
919.739709301374
 23
-661.254265877106
  0
SOLID
  8
MOJI
  6
CONTINUOUS
 62
     7
 10
919.739709301374
 20
-661.622087188981
 11
919.739709301374
 21
-661.254265877106
 12
919.812028745819
 22
-661.514728876238
 13
919.812028745819
 23
-661.514728876238
  0
SOLID
  8
MOJI
  6
CONTINUOUS
 62
     7
 10
919.812028745819
 20
-661.514728876238
 11
919.739709301374
 21
-661.254265877106
 12
919.812028745819
 22
-661.151615985558
 13
919.812028745819
 23
-661.151615985558
  0
SOLID
  8
MOJI
  6
CONTINUOUS
 62
     7
 10
919.812028745819
 20
-661.514728876238
 11
919.812028745819
 21
-661.151615985558
 12
919.964012578284
 22
-661.28388550806
 13
919.964012578284
 23
-661.28388550806
  0
SOLID
  8
MOJI
  6
CONTINUOUS
 62
     7
 10
919.964012578284
 20
-661.28388550806
 11
919.812028745819
 21
-661.151615985558
 12
919.964012578284
 22
-660.935890822853
 13
919.964012578284
 23
-660.935890822853
  0
SOLID
  8
MOJI
  6
CONTINUOUS
 62
     7
 10
919.964012578284
 20
-661.28388550806
 11
919.964012578284
 21
-660.935890822853
 12
920.021642135576
 22
-661.196353821985
 13
920.021642135576
 23
-661.196353821985
  0
SOLID
  8
MOJI
  6
CONTINUOUS
 62
     7
 10
920.021642135576
 20
-661.196353821985
 11
919.964012578284
 21
-660.935890822853
 12
920.021642135576
 22
-660.849258646115
 13
920.021642135576
 23
-660.849258646115
  0
SOLID
  8
MOJI
  6
CONTINUOUS
 62
     7
 10
920.021642135576
 20
-661.196353821985
 11
920.021642135576
 21
-660.849258646115
 12
920.180688413787
 22
-660.930969800598
 13
920.180688413787
 23
-660.930969800598
  0
SOLID
  8
MOJI
  6
CONTINUOUS
 62
     7
 10
920.180688413787
 20
-660.930969800598
 11
920.021642135576
 21
-660.849258646115
 12
920.180688413787
 22
-660.610170825023
 13
920.180688413787
 23
-660.610170825023
  0
SOLID
  8
MOJI
  6
CONTINUOUS
 62
     7
 10
920.180688413787
 20
-660.930969800598
 11
920.180688413787
 21
-660.610170825023
 12
920.21684813601
 22
-660.870633824155
 13
920.21684813601
 23
-660.870633824155
  0
SOLID
  8
MOJI
  6
CONTINUOUS
 62
     7
 10
920.21684813601
 20
-660.870633824155
 11
920.180688413787
 21
-660.610170825023
 12
920.21684813601
 22
-660.555339205935
 13
920.21684813601
 23
-660.555339205935
  0
SOLID
  8
MOJI
  6
CONTINUOUS
 62
     7
 10
920.21684813601
 20
-660.870633824155
 11
920.21684813601
 21
-660.555339205935
 12
920.404991690697
 22
-660.549891266381
 13
920.404991690697
 23
-660.549891266381
  0
SOLID
  8
MOJI
  6
CONTINUOUS
 62
     7
 10
920.404991690697
 20
-660.549891266381
 11
920.21684813601
 21
-660.555339205935
 12
920.404991690697
 22
-660.27004343787
 13
920.404991690697
 23
-660.27004343787
  0
SOLID
  8
MOJI
  6
CONTINUOUS
 62
     7
 10
920.404991690697
 20
-660.549891266381
 11
920.404991690697
 21
-660.27004343787
 12
920.412054136444
 22
-660.537851380578
 13
920.412054136444
 23
-660.537851380578
  0
SOLID
  8
MOJI
  6
CONTINUOUS
 62
     7
 10
920.412054136444
 20
-660.537851380578
 11
920.404991690697
 21
-660.27004343787
 12
920.412054136444
 22
-660.258816584459
 13
920.412054136444
 23
-660.258816584459
  0
SOLID
  8
MOJI
  6
CONTINUOUS
 62
     7
 10
920.412054136444
 20
-660.537851380578
 11
920.412054136444
 21
-660.258816584459
 12
920.527878246687
 22
-660.323941987787
 13
920.527878246687
 23
-660.323941987787
  0
SOLID
  8
MOJI
  6
CONTINUOUS
 62
     7
 10
920.527878246687
 20
-660.323941987787
 11
920.412054136444
 21
-660.258816584459
 12
920.527878246687
 22
-660.074696188521
 13
920.527878246687
 23
-660.074696188521
  0
SOLID
  8
MOJI
  6
CONTINUOUS
 62
     7
 10
920.527878246687
 20
-660.323941987787
 11
920.527878246687
 21
-660.074696188521
 12
920.600197691131
 22
-660.190379049849
 13
920.600197691131
 23
-660.190379049849
  0
ENDBLK
  8
0
  0
BLOCK
  8
0
  2
*U36
 70
     1
 10
0.0
 20
0.0
  0
SOLID
  8
MOJI
  6
CONTINUOUS
 62
     7
 10
917.115304461965
 20
-663.548289504493
 11
917.086489683319
 21
-663.172002395118
 12
917.115304461965
 22
-663.148928060656
 13
917.115304461965
 23
-663.148928060656
  0
SOLID
  8
MOJI
  6
CONTINUOUS
 62
     7
 10
917.115304461965
 20
-663.548289504493
 11
917.115304461965
 21
-663.148928060656
 12
917.158809127763
 22
-663.644067745291
 13
917.158809127763
 23
-663.644067745291
  0
SOLID
  8
MOJI
  6
CONTINUOUS
 62
     7
 10
917.158809127763
 20
-663.644067745291
 11
917.115304461965
 21
-663.148928060656
 12
917.158809127763
 22
-663.114090339997
 13
917.158809127763
 23
-663.114090339997
  0
SOLID
  8
MOJI
  6
CONTINUOUS
 62
     7
 10
917.158809127763
 20
-663.644067745291
 11
917.158809127763
 21
-663.114090339997
 12
917.296103073076
 22
-663.946328946768
 13
917.296103073076
 23
-663.946328946768
  0
SOLID
  8
MOJI
  6
CONTINUOUS
 62
     7
 10
917.296103073076
 20
-663.946328946768
 11
917.158809127763
 21
-663.114090339997
 12
917.296103073076
 22
-663.454990272236
 13
917.296103073076
 23
-663.454990272236
  0
SOLID
  8
MOJI
  6
CONTINUOUS
 62
     7
 10
917.296103073076
 20
-663.946328946768
 11
917.296103073076
 21
-663.454990272236
 12
917.324917851721
 22
-663.98720463439
 13
917.324917851721
 23
-663.98720463439
  0
SOLID
  8
MOJI
  6
CONTINUOUS
 62
     7
 10
917.324917851721
 20
-663.98720463439
 11
917.296103073076
 21
-663.454990272236
 12
917.324917851721
 22
-663.526537171594
 13
917.324917851721
 23
-663.526537171594
  0
SOLID
  8
MOJI
  6
CONTINUOUS
 62
     7
 10
917.324917851721
 20
-663.98720463439
 11
917.324917851721
 21
-663.526537171594
 12
917.382829906843
 22
-664.069356751672
 13
917.382829906843
 23
-664.069356751672
  0
SOLID
  8
MOJI
  6
CONTINUOUS
 62
     7
 10
917.382829906843
 20
-664.069356751672
 11
917.324917851721
 21
-663.526537171594
 12
917.382829906843
 22
-663.562436187176
 13
917.382829906843
 23
-663.562436187176
  0
SOLID
  8
MOJI
  6
CONTINUOUS
 62
     7
 10
917.382829906843
 20
-664.069356751672
 11
917.382829906843
 21
-663.562436187176
 12
917.476901684187
 22
-664.166839778961
 13
917.476901684187
 23
-664.166839778961
  0
SOLID
  8
MOJI
  6
CONTINUOUS
 62
     7
 10
917.476901684187
 20
-664.166839778961
 11
917.382829906843
 21
-663.562436187176
 12
917.476901684187
 22
-663.620750197853
 13
917.476901684187
 23
-663.620750197853
  0
SOLID
  8
MOJI
  6
CONTINUOUS
 62
     7
 10
917.476901684187
 20
-664.166839778961
 11
917.476901684187
 21
-663.620750197853
 12
917.585380850854
 22
-664.279252639259
 13
917.585380850854
 23
-664.279252639259
  0
SOLID
  8
MOJI
  6
CONTINUOUS
 62
     7
 10
917.585380850854
 20
-664.279252639259
 11
917.476901684187
 21
-663.620750197853
 12
917.585380850854
 22
-663.64827298037
 13
917.585380850854
 23
-663.64827298037
  0
SOLID
  8
MOJI
  6
CONTINUOUS
 62
     7
 10
917.585380850854
 20
-664.279252639259
 11
917.585380850854
 21
-663.64827298037
 12
917.657700295298
 22
-664.214136889476
 13
917.657700295298
 23
-664.214136889476
  0
SOLID
  8
MOJI
  6
CONTINUOUS
 62
     7
 10
917.657700295298
 20
-664.214136889476
 11
917.585380850854
 21
-663.64827298037
 12
917.657700295298
 22
-663.666621502048
 13
917.657700295298
 23
-663.666621502048
  0
SOLID
  8
MOJI
  6
CONTINUOUS
 62
     7
 10
917.657700295298
 20
-664.214136889476
 11
917.657700295298
 21
-663.666621502048
 12
917.69386001752
 22
-664.040400724111
 13
917.69386001752
 23
-664.040400724111
  0
SOLID
  8
MOJI
  6
CONTINUOUS
 62
     7
 10
917.69386001752
 20
-664.040400724111
 11
917.657700295298
 21
-663.666621502048
 12
917.69386001752
 22
-663.675795762887
 13
917.69386001752
 23
-663.675795762887
  0
SOLID
  8
MOJI
  6
CONTINUOUS
 62
     7
 10
917.69386001752
 20
-664.040400724111
 11
917.69386001752
 21
-663.675795762887
 12
917.737082185489
 22
-663.989692363651
 13
917.737082185489
 23
-663.989692363651
  0
SOLID
  8
MOJI
  6
CONTINUOUS
 62
     7
 10
917.737082185489
 20
-663.989692363651
 11
917.69386001752
 21
-663.675795762887
 12
917.737082185489
 22
-663.686761871546
 13
917.737082185489
 23
-663.686761871546
  0
SOLID
  8
MOJI
  6
CONTINUOUS
 62
     7
 10
917.737082185489
 20
-663.989692363651
 11
917.737082185489
 21
-663.686761871546
 12
917.990200241044
 22
-663.750981697419
 13
917.990200241044
 23
-663.750981697419
  0
ENDBLK
  8
0
  0
BLOCK
  8
0
  2
*U37
 70
     1
 10
0.0
 20
0.0
  0
SOLID
  8
MOJI
  6
CONTINUOUS
 62
     7
 10
913.269096508406
 20
-661.05989577701
 11
913.196777063961
 21
-661.058777378842
 12
913.269096508406
 22
-661.058777378842
 13
913.269096508406
 23
-661.058777378842
  0
SOLID
  8
MOJI
  6
CONTINUOUS
 62
     7
 10
913.269096508406
 20
-661.05989577701
 11
913.269096508406
 21
-661.058777378842
 12
913.702730677242
 22
-661.066601797273
 13
913.702730677242
 23
-661.066601797273
  0
SOLID
  8
MOJI
  6
CONTINUOUS
 62
     7
 10
913.702730677242
 20
-661.066601797273
 11
913.269096508406
 21
-661.058777378842
 12
913.702730677242
 22
-661.008210267297
 13
913.702730677242
 23
-661.008210267297
  0
SOLID
  8
MOJI
  6
CONTINUOUS
 62
     7
 10
913.702730677242
 20
-661.066601797273
 11
913.702730677242
 21
-661.008210267297
 12
914.056982955888
 22
-661.072080200798
 13
914.056982955888
 23
-661.072080200798
  0
SOLID
  8
MOJI
  6
CONTINUOUS
 62
     7
 10
914.056982955888
 20
-661.072080200798
 11
913.702730677242
 21
-661.008210267297
 12
914.056982955888
 22
-660.972050545075
 13
914.056982955888
 23
-660.972050545075
  0
SOLID
  8
MOJI
  6
CONTINUOUS
 62
     7
 10
914.056982955888
 20
-661.072080200798
 11
914.056982955888
 21
-660.972050545075
 12
914.324508400767
 22
-661.07621740027
 13
914.324508400767
 23
-661.07621740027
  0
SOLID
  8
MOJI
  6
CONTINUOUS
 62
     7
 10
914.324508400767
 20
-661.07621740027
 11
914.056982955888
 21
-660.972050545075
 12
914.324508400767
 22
-660.943094517514
 13
914.324508400767
 23
-660.943094517514
  0
SOLID
  8
MOJI
  6
CONTINUOUS
 62
     7
 10
914.324508400767
 20
-661.07621740027
 11
914.324508400767
 21
-660.943094517514
 12
914.519714401201
 22
-661.079236201574
 13
914.519714401201
 23
-661.079236201574
  0
SOLID
  8
MOJI
  6
CONTINUOUS
 62
     7
 10
914.519714401201
 20
-661.079236201574
 11
914.324508400767
 21
-660.943094517514
 12
914.519714401201
 22
-660.921342184615
 13
914.519714401201
 23
-660.921342184615
  0
SOLID
  8
MOJI
  6
CONTINUOUS
 62
     7
 10
914.519714401201
 20
-661.079236201574
 11
914.519714401201
 21
-660.921342184615
 12
914.606441234968
 22
-661.080577405627
 13
914.606441234968
 23
-661.080577405627
  0
SOLID
  8
MOJI
  6
CONTINUOUS
 62
     7
 10
914.606441234968
 20
-661.080577405627
 11
914.519714401201
 21
-660.921342184615
 12
914.606441234968
 22
-660.906934795292
 13
914.606441234968
 23
-660.906934795292
  0
SOLID
  8
MOJI
  6
CONTINUOUS
 62
     7
 10
914.606441234968
 20
-661.080577405627
 11
914.606441234968
 21
-660.906934795292
 12
914.74401767811
 22
-661.082704983391
 13
914.74401767811
 23
-661.082704983391
  0
SOLID
  8
MOJI
  6
CONTINUOUS
 62
     7
 10
914.74401767811
 20
-661.082704983391
 11
914.606441234968
 21
-660.906934795292
 12
914.74401767811
 22
-660.668082880144
 13
914.74401767811
 23
-660.668082880144
  0
SOLID
  8
MOJI
  6
CONTINUOUS
 62
     7
 10
914.74401767811
 20
-661.082704983391
 11
914.74401767811
 21
-660.668082880144
 12
915.033012958058
 22
-661.087174207319
 13
915.033012958058
 23
-661.087174207319
  0
SOLID
  8
MOJI
  6
CONTINUOUS
 62
     7
 10
915.033012958058
 20
-661.087174207319
 11
914.74401767811
 21
-660.668082880144
 12
915.033012958058
 22
-660.986457934398
 13
915.033012958058
 23
-660.986457934398
  0
SOLID
  8
MOJI
  6
CONTINUOUS
 62
     7
 10
915.033012958058
 20
-661.087174207319
 11
915.033012958058
 21
-660.986457934398
 12
915.069172680281
 22
-661.087733406403
 13
915.069172680281
 23
-661.087733406403
  0
ENDBLK
  8
0
  0
BLOCK
  8
0
  2
*U38
 70
     1
 10
0.0
 20
0.0
  0
SOLID
  8
MOJI
  6
CONTINUOUS
 62
     7
 10
912.929251619083
 20
-660.928545879276
 11
912.929251619083
 21
-660.906934795292
 12
912.979818730628
 22
-661.075148883735
 13
912.979818730628
 23
-661.075148883735
  0
SOLID
  8
MOJI
  6
CONTINUOUS
 62
     7
 10
912.979818730628
 20
-661.075148883735
 11
912.929251619083
 21
-660.906934795292
 12
912.979818730628
 22
-660.877978767731
 13
912.979818730628
 23
-660.877978767731
  0
SOLID
  8
MOJI
  6
CONTINUOUS
 62
     7
 10
912.979818730628
 20
-661.075148883735
 11
912.979818730628
 21
-660.877978767731
 12
913.066545564395
 22
-661.326585321551
 13
913.066545564395
 23
-661.326585321551
  0
SOLID
  8
MOJI
  6
CONTINUOUS
 62
     7
 10
913.066545564395
 20
-661.326585321551
 11
912.979818730628
 21
-660.877978767731
 12
913.066545564395
 22
-660.950251129204
 13
913.066545564395
 23
-660.950251129204
  0
SOLID
  8
MOJI
  6
CONTINUOUS
 62
     7
 10
913.066545564395
 20
-661.326585321551
 11
913.066545564395
 21
-660.950251129204
 12
913.196777063961
 22
-661.456918564476
 13
913.196777063961
 23
-661.456918564476
  0
SOLID
  8
MOJI
  6
CONTINUOUS
 62
     7
 10
913.196777063961
 20
-661.456918564476
 11
913.066545564395
 21
-660.950251129204
 12
913.196777063961
 22
-661.058777378842
 13
913.196777063961
 23
-661.058777378842
  0
SOLID
  8
MOJI
  6
CONTINUOUS
 62
     7
 10
913.196777063961
 20
-661.456918564476
 11
913.196777063961
 21
-661.058777378842
 12
913.247344175506
 22
-661.507525181577
 13
913.247344175506
 23
-661.507525181577
  0
SOLID
  8
MOJI
  6
CONTINUOUS
 62
     7
 10
913.247344175506
 20
-661.507525181577
 11
913.196777063961
 21
-661.058777378842
 12
913.247344175506
 22
-661.059559383811
 13
913.247344175506
 23
-661.059559383811
  0
SOLID
  8
MOJI
  6
CONTINUOUS
 62
     7
 10
913.247344175506
 20
-661.507525181577
 11
913.247344175506
 21
-661.059559383811
 12
913.319663619951
 22
-661.384497376672
 13
913.319663619951
 23
-661.384497376672
  0
SOLID
  8
MOJI
  6
CONTINUOUS
 62
     7
 10
913.319663619951
 20
-661.384497376672
 11
913.247344175506
 21
-661.059559383811
 12
913.319663619951
 22
-661.060677781979
 13
913.319663619951
 23
-661.060677781979
  0
SOLID
  8
MOJI
  6
CONTINUOUS
 62
     7
 10
913.319663619951
 20
-661.384497376672
 11
913.319663619951
 21
-661.060677781979
 12
913.377575675072
 22
-661.355541349111
 13
913.377575675072
 23
-661.355541349111
  0
SOLID
  8
MOJI
  6
CONTINUOUS
 62
     7
 10
913.377575675072
 20
-661.355541349111
 11
913.319663619951
 21
-661.060677781979
 12
913.377575675072
 22
-661.061573374262
 13
913.377575675072
 23
-661.061573374262
  0
SOLID
  8
MOJI
  6
CONTINUOUS
 62
     7
 10
913.377575675072
 20
-661.355541349111
 11
913.377575675072
 21
-661.061573374262
 12
913.543684399031
 22
-661.304832988651
 13
913.543684399031
 23
-661.304832988651
  0
SOLID
  8
MOJI
  6
CONTINUOUS
 62
     7
 10
913.543684399031
 20
-661.304832988651
 11
913.377575675072
 21
-661.061573374262
 12
913.543684399031
 22
-661.064142195053
 13
913.543684399031
 23
-661.064142195053
  0
SOLID
  8
MOJI
  6
CONTINUOUS
 62
     7
 10
913.543684399031
 20
-661.304832988651
 11
913.543684399031
 21
-661.064142195053
 12
913.818554787485
 22
-661.239717238868
 13
913.818554787485
 23
-661.239717238868
  0
SOLID
  8
MOJI
  6
CONTINUOUS
 62
     7
 10
913.818554787485
 20
-661.239717238868
 11
913.543684399031
 21
-661.064142195053
 12
913.818554787485
 22
-661.068392981839
 13
913.818554787485
 23
-661.068392981839
  0
SOLID
  8
MOJI
  6
CONTINUOUS
 62
     7
 10
913.818554787485
 20
-661.239717238868
 11
913.818554787485
 21
-661.068392981839
 12
914.187214455454
 22
-661.167397794424
 13
914.187214455454
 23
-661.167397794424
  0
SOLID
  8
MOJI
  6
CONTINUOUS
 62
     7
 10
914.187214455454
 20
-661.167397794424
 11
913.818554787485
 21
-661.068392981839
 12
914.187214455454
 22
-661.074094191248
 13
914.187214455454
 23
-661.074094191248
  0
SOLID
  8
MOJI
  6
CONTINUOUS
 62
     7
 10
914.187214455454
 20
-661.167397794424
 11
914.187214455454
 21
-661.074094191248
 12
914.657290844343
 22
-661.087733406403
 13
914.657290844343
 23
-661.087733406403
  0
SOLID
  8
MOJI
  6
CONTINUOUS
 62
     7
 10
914.657290844343
 20
-661.087733406403
 11
914.187214455454
 21
-661.074094191248
 12
914.657290844343
 22
-661.081363779339
 13
914.657290844343
 23
-661.081363779339
  0
SOLID
  8
MOJI
  6
CONTINUOUS
 62
     7
 10
914.657290844343
 20
-661.087733406403
 11
914.657290844343
 21
-661.081363779339
 12
915.069172680281
 22
-661.087733406403
 13
915.069172680281
 23
-661.087733406403
  0
ENDBLK
  8
0
  0
BLOCK
  8
0
  2
*U39
 70
     1
 10
0.0
 20
0.0
  0
SOLID
  8
MOJI
  6
CONTINUOUS
 62
     7
 10
913.283503897728
 20
-663.956286367432
 11
913.218529396861
 21
-663.953532641429
 12
913.283503897728
 22
-663.946328946768
 13
913.283503897728
 23
-663.946328946768
  0
SOLID
  8
MOJI
  6
CONTINUOUS
 62
     7
 10
913.283503897728
 20
-663.956286367432
 11
913.283503897728
 21
-663.946328946768
 12
913.319663619951
 22
-663.957818875817
 13
913.319663619951
 23
-663.957818875817
  0
SOLID
  8
MOJI
  6
CONTINUOUS
 62
     7
 10
913.319663619951
 20
-663.957818875817
 11
913.283503897728
 21
-663.946328946768
 12
913.319663619951
 22
-663.942235644879
 13
913.319663619951
 23
-663.942235644879
  0
SOLID
  8
MOJI
  6
CONTINUOUS
 62
     7
 10
913.319663619951
 20
-663.957818875817
 11
913.319663619951
 21
-663.942235644879
 12
913.355823342173
 22
-663.959351384201
 13
913.355823342173
 23
-663.959351384201
  0
SOLID
  8
MOJI
  6
CONTINUOUS
 62
     7
 10
913.355823342173
 20
-663.959351384201
 11
913.319663619951
 21
-663.942235644879
 12
913.355823342173
 22
-663.93814234299
 13
913.355823342173
 23
-663.93814234299
  0
SOLID
  8
MOJI
  6
CONTINUOUS
 62
     7
 10
913.355823342173
 20
-662.40546756318
 11
913.319663619951
 21
-662.40487953813
 12
913.355823342173
 22
-662.397675843469
 13
913.355823342173
 23
-662.397675843469
  0
SOLID
  8
MOJI
  6
CONTINUOUS
 62
     7
 10
913.355823342173
 20
-663.959351384201
 11
913.355823342173
 21
-663.93814234299
 12
913.66657095502
 22
-663.97252137813
 13
913.66657095502
 23
-663.97252137813
  0
SOLID
  8
MOJI
  6
CONTINUOUS
 62
     7
 10
913.66657095502
 20
-663.97252137813
 11
913.355823342173
 21
-663.93814234299
 12
913.66657095502
 22
-663.902965529884
 13
913.66657095502
 23
-663.902965529884
  0
SOLID
  8
MOJI
  6
CONTINUOUS
 62
     7
 10
913.355823342173
 20
-662.40546756318
 11
913.355823342173
 21
-662.397675843469
 12
913.66657095502
 22
-662.410520903453
 13
913.66657095502
 23
-662.410520903453
  0
SOLID
  8
MOJI
  6
CONTINUOUS
 62
     7
 10
913.66657095502
 20
-662.410520903453
 11
913.355823342173
 21
-662.397675843469
 12
913.66657095502
 22
-662.366520158327
 13
913.66657095502
 23
-662.366520158327
  0
SOLID
  8
MOJI
  6
CONTINUOUS
 62
     7
 10
913.66657095502
 20
-663.97252137813
 11
913.66657095502
 21
-663.902965529884
 12
913.78974000884
 22
-663.977741484815
 13
913.78974000884
 23
-663.977741484815
  0
SOLID
  8
MOJI
  6
CONTINUOUS
 62
     7
 10
913.78974000884
 20
-663.977741484815
 11
913.66657095502
 21
-663.902965529884
 12
913.78974000884
 22
-663.886500222342
 13
913.78974000884
 23
-663.886500222342
  0
SOLID
  8
MOJI
  6
CONTINUOUS
 62
     7
 10
913.66657095502
 20
-662.410520903453
 11
913.66657095502
 21
-662.366520158327
 12
913.78974000884
 22
-662.412523863779
 13
913.78974000884
 23
-662.412523863779
  0
SOLID
  8
MOJI
  6
CONTINUOUS
 62
     7
 10
913.78974000884
 20
-662.412523863779
 11
913.66657095502
 21
-662.366520158327
 12
913.78974000884
 22
-662.35417117767
 13
913.78974000884
 23
-662.35417117767
  0
SOLID
  8
MOJI
  6
CONTINUOUS
 62
     7
 10
913.78974000884
 20
-663.977741484815
 11
913.78974000884
 21
-663.886500222342
 12
913.99200845502
 22
-663.98631395359
 13
913.99200845502
 23
-663.98631395359
  0
SOLID
  8
MOJI
  6
CONTINUOUS
 62
     7
 10
913.99200845502
 20
-663.98631395359
 11
913.78974000884
 21
-663.886500222342
 12
913.99200845502
 22
-663.859460864085
 13
913.99200845502
 23
-663.859460864085
  0
SOLID
  8
MOJI
  6
CONTINUOUS
 62
     7
 10
913.78974000884
 20
-662.412523863779
 11
913.78974000884
 21
-662.35417117767
 12
913.99200845502
 22
-662.415813128901
 13
913.99200845502
 23
-662.415813128901
  0
SOLID
  8
MOJI
  6
CONTINUOUS
 62
     7
 10
913.99200845502
 20
-662.415813128901
 11
913.78974000884
 21
-662.35417117767
 12
913.99200845502
 22
-662.329411842352
 13
913.99200845502
 23
-662.329411842352
  0
SOLID
  8
MOJI
  6
CONTINUOUS
 62
     7
 10
913.99200845502
 20
-663.98631395359
 11
913.99200845502
 21
-663.859460864085
 12
914.143992287485
 22
-663.992755277893
 13
914.143992287485
 23
-663.992755277893
  0
SOLID
  8
MOJI
  6
CONTINUOUS
 62
     7
 10
914.143992287485
 20
-663.992755277893
 11
913.99200845502
 21
-663.859460864085
 12
914.143992287485
 22
-663.839467101952
 13
914.143992287485
 23
-663.839467101952
  0
SOLID
  8
MOJI
  6
CONTINUOUS
 62
     7
 10
913.99200845502
 20
-662.415813128901
 11
913.99200845502
 21
-662.329411842352
 12
914.143992287485
 22
-662.418284671689
 13
914.143992287485
 23
-662.418284671689
  0
SOLID
  8
MOJI
  6
CONTINUOUS
 62
     7
 10
914.143992287485
 20
-662.418284671689
 11
913.99200845502
 21
-662.329411842352
 12
914.143992287485
 22
-662.310807760787
 13
914.143992287485
 23
-662.310807760787
  0
SOLID
  8
MOJI
  6
CONTINUOUS
 62
     7
 10
914.143992287485
 20
-663.992755277893
 11
914.143992287485
 21
-663.839467101952
 12
914.266878843475
 22
-663.997963411856
 13
914.266878843475
 23
-663.997963411856
  0
SOLID
  8
MOJI
  6
CONTINUOUS
 62
     7
 10
914.266878843475
 20
-663.997963411856
 11
914.143992287485
 21
-663.839467101952
 12
914.266878843475
 22
-663.823301141863
 13
914.266878843475
 23
-663.823301141863
  0
SOLID
  8
MOJI
  6
CONTINUOUS
 62
     7
 10
914.143992287485
 20
-662.418284671689
 11
914.143992287485
 21
-662.310807760787
 12
914.266878843475
 22
-662.420283038069
 13
914.266878843475
 23
-662.420283038069
  0
SOLID
  8
MOJI
  6
CONTINUOUS
 62
     7
 10
914.266878843475
 20
-662.420283038069
 11
914.143992287485
 21
-662.310807760787
 12
914.266878843475
 22
-662.297492885534
 13
914.266878843475
 23
-662.297492885534
  0
SOLID
  8
MOJI
  6
CONTINUOUS
 62
     7
 10
914.266878843475
 20
-663.997963411856
 11
914.266878843475
 21
-663.823301141863
 12
914.411235234534
 22
-664.004081472672
 13
914.411235234534
 23
-664.004081472672
  0
SOLID
  8
MOJI
  6
CONTINUOUS
 62
     7
 10
914.411235234534
 20
-664.004081472672
 11
914.266878843475
 21
-663.823301141863
 12
914.411235234534
 22
-663.800000236371
 13
914.411235234534
 23
-663.800000236371
  0
SOLID
  8
MOJI
  6
CONTINUOUS
 62
     7
 10
914.266878843475
 20
-662.420283038069
 11
914.266878843475
 21
-662.297492885534
 12
914.411235234534
 22
-662.422630544323
 13
914.411235234534
 23
-662.422630544323
  0
SOLID
  8
MOJI
  6
CONTINUOUS
 62
     7
 10
914.411235234534
 20
-662.422630544323
 11
914.266878843475
 21
-662.297492885534
 12
914.411235234534
 22
-662.281851733226
 13
914.411235234534
 23
-662.281851733226
  0
SOLID
  8
MOJI
  6
CONTINUOUS
 62
     7
 10
914.411235234534
 20
-664.004081472672
 11
914.411235234534
 21
-663.800000236371
 12
914.490899622555
 22
-664.007457780207
 13
914.490899622555
 23
-664.007457780207
  0
SOLID
  8
MOJI
  6
CONTINUOUS
 62
     7
 10
914.490899622555
 20
-664.007457780207
 11
914.411235234534
 21
-663.800000236371
 12
914.490899622555
 22
-663.787141419641
 13
914.490899622555
 23
-663.787141419641
  0
SOLID
  8
MOJI
  6
CONTINUOUS
 62
     7
 10
914.411235234534
 20
-662.422630544323
 11
914.411235234534
 21
-662.281851733226
 12
914.490899622555
 22
-662.423926037011
 13
914.490899622555
 23
-662.423926037011
  0
SOLID
  8
MOJI
  6
CONTINUOUS
 62
     7
 10
914.490899622555
 20
-662.423926037011
 11
914.411235234534
 21
-662.281851733226
 12
914.490899622555
 22
-662.272267111542
 13
914.490899622555
 23
-662.272267111542
  0
SOLID
  8
MOJI
  6
CONTINUOUS
 62
     7
 10
914.490899622555
 20
-664.007457780207
 11
914.490899622555
 21
-663.787141419641
 12
914.584971399899
 22
-664.011444696551
 13
914.584971399899
 23
-664.011444696551
  0
SOLID
  8
MOJI
  6
CONTINUOUS
 62
     7
 10
914.584971399899
 20
-664.011444696551
 11
914.490899622555
 21
-663.787141419641
 12
914.584971399899
 22
-663.776632316532
 13
914.584971399899
 23
-663.776632316532
  0
SOLID
  8
MOJI
  6
CONTINUOUS
 62
     7
 10
914.490899622555
 20
-662.423926037011
 11
914.490899622555
 21
-662.272267111542
 12
914.584971399899
 22
-662.42545582093
 13
914.584971399899
 23
-662.42545582093
  0
SOLID
  8
MOJI
  6
CONTINUOUS
 62
     7
 10
914.584971399899
 20
-662.42545582093
 11
914.490899622555
 21
-662.272267111542
 12
914.584971399899
 22
-662.26094910083
 13
914.584971399899
 23
-662.26094910083
  0
SOLID
  8
MOJI
  6
CONTINUOUS
 62
     7
 10
914.584971399899
 20
-664.025993334788
 11
914.584971399899
 21
-663.776632316532
 12
914.592033845645
 22
-664.043876746259
 13
914.592033845645
 23
-664.043876746259
  0
SOLID
  8
MOJI
  6
CONTINUOUS
 62
     7
 10
914.592033845645
 20
-664.043876746259
 11
914.584971399899
 21
-663.776632316532
 12
914.592033845645
 22
-663.775843344827
 13
914.592033845645
 23
-663.775843344827
  0
SOLID
  8
MOJI
  6
CONTINUOUS
 62
     7
 10
914.584971399899
 20
-662.42545582093
 11
914.584971399899
 21
-662.26094910083
 12
914.592033845645
 22
-662.425570669572
 13
914.592033845645
 23
-662.425570669572
  0
SOLID
  8
MOJI
  6
CONTINUOUS
 62
     7
 10
914.592033845645
 20
-662.425570669572
 11
914.584971399899
 21
-662.26094910083
 12
914.592033845645
 22
-662.260099400327
 13
914.592033845645
 23
-662.260099400327
  0
SOLID
  8
MOJI
  6
CONTINUOUS
 62
     7
 10
914.592033845645
 20
-664.043876746259
 11
914.592033845645
 21
-663.775843344827
 12
914.621131122121
 22
-664.117556401519
 13
914.621131122121
 23
-664.117556401519
  0
SOLID
  8
MOJI
  6
CONTINUOUS
 62
     7
 10
914.621131122121
 20
-664.117556401519
 11
914.592033845645
 21
-663.775843344827
 12
914.621131122121
 22
-663.772592781403
 13
914.621131122121
 23
-663.772592781403
  0
SOLID
  8
MOJI
  6
CONTINUOUS
 62
     7
 10
914.592033845645
 20
-662.425570669572
 11
914.592033845645
 21
-662.260099400327
 12
914.621131122121
 22
-662.42604384598
 13
914.621131122121
 23
-662.42604384598
  0
SOLID
  8
MOJI
  6
CONTINUOUS
 62
     7
 10
914.621131122121
 20
-662.42604384598
 11
914.592033845645
 21
-662.260099400327
 12
914.621131122121
 22
-662.256887363313
 13
914.621131122121
 23
-662.256887363313
  0
SOLID
  8
MOJI
  6
CONTINUOUS
 62
     7
 10
914.621131122121
 20
-664.117556401519
 11
914.621131122121
 21
-663.772592781403
 12
914.635538511444
 22
-664.154038560919
 13
914.635538511444
 23
-664.154038560919
  0
SOLID
  8
MOJI
  6
CONTINUOUS
 62
     7
 10
914.635538511444
 20
-664.154038560919
 11
914.621131122121
 21
-663.772592781403
 12
914.635538511444
 22
-663.302233894684
 13
914.635538511444
 23
-663.302233894684
  0
SOLID
  8
MOJI
  6
CONTINUOUS
 62
     7
 10
914.621131122121
 20
-662.42604384598
 11
914.621131122121
 21
-662.256887363313
 12
914.635538511444
 22
-662.426278137211
 13
914.635538511444
 23
-662.426278137211
  0
SOLID
  8
MOJI
  6
CONTINUOUS
 62
     7
 10
914.635538511444
 20
-662.426278137211
 11
914.621131122121
 21
-662.256887363313
 12
914.635538511444
 22
-662.255296937219
 13
914.635538511444
 23
-662.255296937219
  0
SOLID
  8
MOJI
  6
CONTINUOUS
 62
     7
 10
914.635538511444
 20
-664.154038560919
 11
914.635538511444
 21
-663.302233894684
 12
914.649945900767
 22
-664.19052072032
 13
914.649945900767
 23
-664.19052072032
  0
SOLID
  8
MOJI
  6
CONTINUOUS
 62
     7
 10
914.649945900767
 20
-664.19052072032
 11
914.635538511444
 21
-663.302233894684
 12
914.649945900767
 22
-662.831875007965
 13
914.649945900767
 23
-662.831875007965
  0
SOLID
  8
MOJI
  6
CONTINUOUS
 62
     7
 10
914.635538511444
 20
-662.426278137211
 11
914.635538511444
 21
-662.255296937219
 12
914.649945900767
 22
-662.426512428441
 13
914.649945900767
 23
-662.426512428441
  0
SOLID
  8
MOJI
  6
CONTINUOUS
 62
     7
 10
914.649945900767
 20
-662.426512428441
 11
914.635538511444
 21
-662.255296937219
 12
914.649945900767
 22
-662.253706511125
 13
914.649945900767
 23
-662.253706511125
  0
SOLID
  8
MOJI
  6
CONTINUOUS
 62
     7
 10
914.649945900767
 20
-664.19052072032
 11
914.649945900767
 21
-662.831875007965
 12
914.657290844343
 22
-664.209119468249
 13
914.657290844343
 23
-664.209119468249
  0
SOLID
  8
MOJI
  6
CONTINUOUS
 62
     7
 10
914.657290844343
 20
-664.209119468249
 11
914.649945900767
 21
-662.831875007965
 12
914.657290844343
 22
-662.42663187103
 13
914.657290844343
 23
-662.42663187103
  0
SOLID
  8
MOJI
  6
CONTINUOUS
 62
     7
 10
914.649945900767
 20
-662.426512428441
 11
914.649945900767
 21
-662.253706511125
 12
914.657290844343
 22
-662.42663187103
 13
914.657290844343
 23
-662.42663187103
  0
SOLID
  8
MOJI
  6
CONTINUOUS
 62
     7
 10
914.657290844343
 20
-662.42663187103
 11
914.649945900767
 21
-662.253706511125
 12
914.657290844343
 22
-662.252895705665
 13
914.657290844343
 23
-662.252895705665
  0
SOLID
  8
MOJI
  6
CONTINUOUS
 62
     7
 10
914.657290844343
 20
-664.209119468249
 11
914.657290844343
 21
-661.087733406403
 12
914.707857955888
 22
-664.33716469438
 13
914.707857955888
 23
-664.33716469438
  0
SOLID
  8
MOJI
  6
CONTINUOUS
 62
     7
 10
914.707857955888
 20
-664.33716469438
 11
914.657290844343
 21
-661.087733406403
 12
914.707857955888
 22
-661.087733406403
 13
914.707857955888
 23
-661.087733406403
  0
SOLID
  8
MOJI
  6
CONTINUOUS
 62
     7
 10
914.707857955888
 20
-664.33716469438
 11
914.707857955888
 21
-661.087733406403
 12
914.816337122555
 22
-664.098312779233
 13
914.816337122555
 23
-664.098312779233
  0
SOLID
  8
MOJI
  6
CONTINUOUS
 62
     7
 10
914.816337122555
 20
-664.098312779233
 11
914.707857955888
 21
-661.087733406403
 12
914.816337122555
 22
-661.087733406403
 13
914.816337122555
 23
-661.087733406403
  0
SOLID
  8
MOJI
  6
CONTINUOUS
 62
     7
 10
914.816337122555
 20
-664.098312779233
 11
914.816337122555
 21
-661.087733406403
 12
914.823399568301
 22
-664.054949362349
 13
914.823399568301
 23
-664.054949362349
  0
SOLID
  8
MOJI
  6
CONTINUOUS
 62
     7
 10
914.823399568301
 20
-664.054949362349
 11
914.816337122555
 21
-661.087733406403
 12
914.823399568301
 22
-661.087733406403
 13
914.823399568301
 23
-661.087733406403
  0
SOLID
  8
MOJI
  6
CONTINUOUS
 62
     7
 10
914.823399568301
 20
-664.054949362349
 11
914.823399568301
 21
-661.087733406403
 12
914.837806957624
 22
-663.664113614736
 13
914.837806957624
 23
-663.664113614736
  0
SOLID
  8
MOJI
  6
CONTINUOUS
 62
     7
 10
914.837806957624
 20
-663.664113614736
 11
914.823399568301
 21
-661.087733406403
 12
914.837806957624
 22
-661.087733406403
 13
914.837806957624
 23
-661.087733406403
  0
SOLID
  8
MOJI
  6
CONTINUOUS
 62
     7
 10
914.837806957624
 20
-663.664113614736
 11
914.837806957624
 21
-661.087733406403
 12
914.852496844777
 22
-663.244321839563
 13
914.852496844777
 23
-663.244321839563
  0
SOLID
  8
MOJI
  6
CONTINUOUS
 62
     7
 10
914.852496844777
 20
-663.244321839563
 11
914.837806957624
 21
-661.087733406403
 12
914.852496844777
 22
-661.087733406403
 13
914.852496844777
 23
-661.087733406403
  0
SOLID
  8
MOJI
  6
CONTINUOUS
 62
     7
 10
914.852496844777
 20
-663.244321839563
 11
914.852496844777
 21
-661.087733406403
 12
914.8669042341
 22
-662.781166647505
 13
914.8669042341
 23
-662.781166647505
  0
SOLID
  8
MOJI
  6
CONTINUOUS
 62
     7
 10
914.8669042341
 20
-662.781166647505
 11
914.852496844777
 21
-661.087733406403
 12
914.8669042341
 22
-661.087733406403
 13
914.8669042341
 23
-661.087733406403
  0
SOLID
  8
MOJI
  6
CONTINUOUS
 62
     7
 10
914.8669042341
 20
-662.781166647505
 11
914.8669042341
 21
-661.087733406403
 12
914.881311623423
 22
-662.289055427887
 13
914.881311623423
 23
-662.289055427887
  0
SOLID
  8
MOJI
  6
CONTINUOUS
 62
     7
 10
914.881311623423
 20
-662.289055427887
 11
914.8669042341
 21
-661.087733406403
 12
914.881311623423
 22
-661.087733406403
 13
914.881311623423
 23
-661.087733406403
  0
SOLID
  8
MOJI
  6
CONTINUOUS
 62
     7
 10
914.881311623423
 20
-662.289055427887
 11
914.881311623423
 21
-661.087733406403
 12
914.895719012746
 22
-661.767988180708
 13
914.895719012746
 23
-661.767988180708
  0
SOLID
  8
MOJI
  6
CONTINUOUS
 62
     7
 10
914.895719012746
 20
-661.767988180708
 11
914.881311623423
 21
-661.087733406403
 12
914.895719012746
 22
-661.087733406403
 13
914.895719012746
 23
-661.087733406403
  0
SOLID
  8
MOJI
  6
CONTINUOUS
 62
     7
 10
914.895719012746
 20
-661.767988180708
 11
914.895719012746
 21
-661.087733406403
 12
914.910126402069
 22
-661.203557516646
 13
914.910126402069
 23
-661.203557516646
  0
SOLID
  8
MOJI
  6
CONTINUOUS
 62
     7
 10
914.910126402069
 20
-661.203557516646
 11
914.895719012746
 21
-661.087733406403
 12
914.910126402069
 22
-661.087733406403
 13
914.910126402069
 23
-661.087733406403
  0
SOLID
  8
MOJI
  6
CONTINUOUS
 62
     7
 10
914.910126402069
 20
-661.203557516646
 11
914.910126402069
 21
-661.087733406403
 12
915.069172680281
 22
-661.087733406403
 13
915.069172680281
 23
-661.087733406403
  0
ENDBLK
  8
0
  0
BLOCK
  8
0
  2
*U40
 70
     1
 10
0.0
 20
0.0
  0
SOLID
  8
MOJI
  6
CONTINUOUS
 62
     7
 10
913.088297897295
 20
-662.473597135244
 11
913.01597845285
 21
-662.281851733226
 12
913.088297897295
 22
-662.252895705665
 13
913.088297897295
 23
-662.252895705665
  0
SOLID
  8
MOJI
  6
CONTINUOUS
 62
     7
 10
913.088297897295
 20
-662.473597135244
 11
913.088297897295
 21
-662.252895705665
 12
913.160617341739
 22
-662.665342537262
 13
913.160617341739
 23
-662.665342537262
  0
SOLID
  8
MOJI
  6
CONTINUOUS
 62
     7
 10
913.160617341739
 20
-662.665342537262
 11
913.088297897295
 21
-662.252895705665
 12
913.160617341739
 22
-662.300402251588
 13
913.160617341739
 23
-662.300402251588
  0
SOLID
  8
MOJI
  6
CONTINUOUS
 62
     7
 10
913.160617341739
 20
-662.665342537262
 11
913.160617341739
 21
-662.300402251588
 12
913.319663619951
 22
-662.804702305467
 13
913.319663619951
 23
-662.804702305467
  0
SOLID
  8
MOJI
  6
CONTINUOUS
 62
     7
 10
913.319663619951
 20
-662.804702305467
 11
913.160617341739
 21
-662.300402251588
 12
913.319663619951
 22
-662.40487953813
 13
913.319663619951
 23
-662.40487953813
  0
SOLID
  8
MOJI
  6
CONTINUOUS
 62
     7
 10
913.319663619951
 20
-662.804702305467
 11
913.319663619951
 21
-662.40487953813
 12
913.334071009274
 22
-662.817326369728
 13
913.334071009274
 23
-662.817326369728
  0
SOLID
  8
MOJI
  6
CONTINUOUS
 62
     7
 10
913.334071009274
 20
-662.817326369728
 11
913.319663619951
 21
-662.40487953813
 12
913.334071009274
 22
-662.405113829361
 13
913.334071009274
 23
-662.405113829361
  0
SOLID
  8
MOJI
  6
CONTINUOUS
 62
     7
 10
913.334071009274
 20
-662.817326369728
 11
913.334071009274
 21
-662.405113829361
 12
913.428142786617
 22
-662.694439813738
 13
913.428142786617
 23
-662.694439813738
  0
SOLID
  8
MOJI
  6
CONTINUOUS
 62
     7
 10
913.428142786617
 20
-662.694439813738
 11
913.334071009274
 21
-662.405113829361
 12
913.428142786617
 22
-662.40664361328
 13
913.428142786617
 23
-662.40664361328
  0
SOLID
  8
MOJI
  6
CONTINUOUS
 62
     7
 10
913.428142786617
 20
-662.694439813738
 11
913.428142786617
 21
-662.40664361328
 12
913.449895119517
 22
-662.687094870162
 13
913.449895119517
 23
-662.687094870162
  0
SOLID
  8
MOJI
  6
CONTINUOUS
 62
     7
 10
913.449895119517
 20
-662.687094870162
 11
913.428142786617
 21
-662.40664361328
 12
913.449895119517
 22
-662.406997347099
 13
913.449895119517
 23
-662.406997347099
  0
SOLID
  8
MOJI
  6
CONTINUOUS
 62
     7
 10
913.449895119517
 20
-662.687094870162
 11
913.449895119517
 21
-662.406997347099
 12
913.587189064829
 22
-662.643731453278
 13
913.587189064829
 23
-662.643731453278
  0
SOLID
  8
MOJI
  6
CONTINUOUS
 62
     7
 10
913.587189064829
 20
-662.643731453278
 11
913.449895119517
 21
-662.406997347099
 12
913.587189064829
 22
-662.40923000471
 13
913.587189064829
 23
-662.40923000471
  0
SOLID
  8
MOJI
  6
CONTINUOUS
 62
     7
 10
913.587189064829
 20
-662.643731453278
 11
913.587189064829
 21
-662.40923000471
 12
913.832962176808
 22
-662.585819398156
 13
913.832962176808
 23
-662.585819398156
  0
SOLID
  8
MOJI
  6
CONTINUOUS
 62
     7
 10
913.832962176808
 20
-662.585819398156
 11
913.587189064829
 21
-662.40923000471
 12
913.832962176808
 22
-662.413226737471
 13
913.832962176808
 23
-662.413226737471
  0
SOLID
  8
MOJI
  6
CONTINUOUS
 62
     7
 10
913.832962176808
 20
-662.585819398156
 11
913.832962176808
 21
-662.413226737471
 12
914.194559399031
 22
-662.513499953712
 13
914.194559399031
 23
-662.513499953712
  0
SOLID
  8
MOJI
  6
CONTINUOUS
 62
     7
 10
914.194559399031
 20
-662.513499953712
 11
913.832962176808
 21
-662.413226737471
 12
914.194559399031
 22
-662.41910698797
 13
914.194559399031
 23
-662.41910698797
  0
SOLID
  8
MOJI
  6
CONTINUOUS
 62
     7
 10
914.194559399031
 20
-662.513499953712
 11
914.194559399031
 21
-662.41910698797
 12
914.657290844343
 22
-662.42663187103
 13
914.657290844343
 23
-662.42663187103
  0
ENDBLK
  8
0
  0
BLOCK
  8
0
  2
*U41
 70
     1
 10
0.0
 20
0.0
  0
SOLID
  8
MOJI
  6
CONTINUOUS
 62
     7
 10
912.958066397729
 20
-663.895620586307
 11
912.943659008406
 21
-663.801548808964
 12
912.958066397729
 22
-663.782996276903
 13
912.958066397729
 23
-663.782996276903
  0
SOLID
  8
MOJI
  6
CONTINUOUS
 62
     7
 10
912.958066397729
 20
-663.895620586307
 11
912.958066397729
 21
-663.782996276903
 12
912.994226119951
 22
-663.97899054009
 13
912.994226119951
 23
-663.97899054009
  0
SOLID
  8
MOJI
  6
CONTINUOUS
 62
     7
 10
912.994226119951
 20
-663.97899054009
 11
912.958066397729
 21
-663.782996276903
 12
912.994226119951
 22
-663.736433059181
 13
912.994226119951
 23
-663.736433059181
  0
SOLID
  8
MOJI
  6
CONTINUOUS
 62
     7
 10
912.994226119951
 20
-663.97899054009
 11
912.994226119951
 21
-663.736433059181
 12
913.124457619517
 22
-664.279252639259
 13
913.124457619517
 23
-664.279252639259
  0
SOLID
  8
MOJI
  6
CONTINUOUS
 62
     7
 10
913.124457619517
 20
-664.279252639259
 11
912.994226119951
 21
-663.736433059181
 12
913.124457619517
 22
-663.862482060965
 13
913.124457619517
 23
-663.862482060965
  0
SOLID
  8
MOJI
  6
CONTINUOUS
 62
     7
 10
913.124457619517
 20
-664.279252639259
 11
913.124457619517
 21
-663.862482060965
 12
913.218529396861
 22
-664.367917992618
 13
913.218529396861
 23
-664.367917992618
  0
SOLID
  8
MOJI
  6
CONTINUOUS
 62
     7
 10
913.218529396861
 20
-664.367917992618
 11
913.124457619517
 21
-663.862482060965
 12
913.218529396861
 22
-663.953532641429
 13
913.218529396861
 23
-663.953532641429
  0
SOLID
  8
MOJI
  6
CONTINUOUS
 62
     7
 10
913.218529396861
 20
-664.367917992618
 11
913.218529396861
 21
-663.953532641429
 12
913.247344175506
 22
-664.395076749502
 13
913.247344175506
 23
-664.395076749502
  0
SOLID
  8
MOJI
  6
CONTINUOUS
 62
     7
 10
913.247344175506
 20
-664.395076749502
 11
913.218529396861
 21
-663.953532641429
 12
913.247344175506
 22
-663.954753859048
 13
913.247344175506
 23
-663.954753859048
  0
SOLID
  8
MOJI
  6
CONTINUOUS
 62
     7
 10
913.247344175506
 20
-664.395076749502
 11
913.247344175506
 21
-663.954753859048
 12
913.334071009274
 22
-664.279252639259
 13
913.334071009274
 23
-664.279252639259
  0
SOLID
  8
MOJI
  6
CONTINUOUS
 62
     7
 10
913.334071009274
 20
-664.279252639259
 11
913.247344175506
 21
-663.954753859048
 12
913.334071009274
 22
-663.958429484626
 13
913.334071009274
 23
-663.958429484626
  0
SOLID
  8
MOJI
  6
CONTINUOUS
 62
     7
 10
913.334071009274
 20
-664.279252639259
 11
913.334071009274
 21
-663.958429484626
 12
913.406390453718
 22
-664.250296611698
 13
913.406390453718
 23
-664.250296611698
  0
SOLID
  8
MOJI
  6
CONTINUOUS
 62
     7
 10
913.406390453718
 20
-664.250296611698
 11
913.334071009274
 21
-663.958429484626
 12
913.406390453718
 22
-663.961494501395
 13
913.406390453718
 23
-663.961494501395
  0
SOLID
  8
MOJI
  6
CONTINUOUS
 62
     7
 10
913.406390453718
 20
-664.250296611698
 11
913.406390453718
 21
-663.961494501395
 12
913.608941397729
 22
-664.185180861915
 13
913.608941397729
 23
-664.185180861915
  0
SOLID
  8
MOJI
  6
CONTINUOUS
 62
     7
 10
913.608941397729
 20
-664.185180861915
 11
913.406390453718
 21
-663.961494501395
 12
913.608941397729
 22
-663.970078942892
 13
913.608941397729
 23
-663.970078942892
  0
SOLID
  8
MOJI
  6
CONTINUOUS
 62
     7
 10
913.608941397729
 20
-664.185180861915
 11
913.608941397729
 21
-663.970078942892
 12
913.876466842607
 22
-664.120065112132
 13
913.876466842607
 23
-664.120065112132
  0
SOLID
  8
MOJI
  6
CONTINUOUS
 62
     7
 10
913.876466842607
 20
-664.120065112132
 11
913.608941397729
 21
-663.970078942892
 12
913.876466842607
 22
-663.981417110393
 13
913.876466842607
 23
-663.981417110393
  0
SOLID
  8
MOJI
  6
CONTINUOUS
 62
     7
 10
913.876466842607
 20
-664.120065112132
 11
913.876466842607
 21
-663.981417110393
 12
914.201621844777
 22
-664.062153057011
 13
914.201621844777
 23
-664.062153057011
  0
SOLID
  8
MOJI
  6
CONTINUOUS
 62
     7
 10
914.201621844777
 20
-664.062153057011
 11
913.876466842607
 21
-663.981417110393
 12
914.201621844777
 22
-663.995197713131
 13
914.201621844777
 23
-663.995197713131
  0
SOLID
  8
MOJI
  6
CONTINUOUS
 62
     7
 10
914.201621844777
 20
-664.062153057011
 11
914.201621844777
 21
-663.995197713131
 12
914.584971399899
 22
-664.011444696551
 13
914.584971399899
 23
-664.011444696551
  0
ENDBLK
  8
0
  0
BLOCK
  8
0
  2
*U42
 70
     1
 10
0.0
 20
0.0
  0
SOLID
  8
MOJI
  6
CONTINUOUS
 62
     7
 10
910.781985614308
 20
-658.389866924533
 11
910.767578224985
 21
-658.373918003842
 12
910.781985614308
 22
-658.287191170075
 13
910.781985614308
 23
-658.287191170075
  0
SOLID
  8
MOJI
  6
CONTINUOUS
 62
     7
 10
910.781985614308
 20
-658.389866924533
 11
910.781985614308
 21
-658.287191170075
 12
910.904872170298
 22
-658.525901836308
 13
910.904872170298
 23
-658.525901836308
  0
SOLID
  8
MOJI
  6
CONTINUOUS
 62
     7
 10
910.904872170298
 20
-658.525901836308
 11
910.781985614308
 21
-658.287191170075
 12
910.904872170298
 22
-658.339087272062
 13
910.904872170298
 23
-658.339087272062
  0
SOLID
  8
MOJI
  6
CONTINUOUS
 62
     7
 10
910.904872170298
 20
-658.525901836308
 11
910.904872170298
 21
-658.339087272062
 12
911.107423114308
 22
-658.822665806577
 13
911.107423114308
 23
-658.822665806577
  0
SOLID
  8
MOJI
  6
CONTINUOUS
 62
     7
 10
911.107423114308
 20
-658.822665806577
 11
910.904872170298
 21
-658.339087272062
 12
911.107423114308
 22
-658.424626364302
 13
911.107423114308
 23
-658.424626364302
  0
SOLID
  8
MOJI
  6
CONTINUOUS
 62
     7
 10
911.107423114308
 20
-658.822665806577
 11
911.107423114308
 21
-658.424626364302
 12
911.251779505367
 22
-659.119429776846
 13
911.251779505367
 23
-659.119429776846
  0
SOLID
  8
MOJI
  6
CONTINUOUS
 62
     7
 10
911.251779505367
 20
-659.119429776846
 11
911.107423114308
 21
-658.424626364302
 12
911.251779505367
 22
-658.554196925549
 13
911.251779505367
 23
-658.554196925549
  0
SOLID
  8
MOJI
  6
CONTINUOUS
 62
     7
 10
911.251779505367
 20
-659.119429776846
 11
911.251779505367
 21
-658.554196925549
 12
911.317036504065
 22
-659.15669352262
 13
911.317036504065
 23
-659.15669352262
  0
SOLID
  8
MOJI
  6
CONTINUOUS
 62
     7
 10
911.317036504065
 20
-659.15669352262
 11
911.251779505367
 21
-658.554196925549
 12
911.317036504065
 22
-658.61276991899
 13
911.317036504065
 23
-658.61276991899
  0
SOLID
  8
MOJI
  6
CONTINUOUS
 62
     7
 10
911.317036504065
 20
-659.15669352262
 11
911.317036504065
 21
-658.61276991899
 12
911.338788836965
 22
-659.169114771212
 13
911.338788836965
 23
-659.169114771212
  0
SOLID
  8
MOJI
  6
CONTINUOUS
 62
     7
 10
911.338788836965
 20
-659.169114771212
 11
911.317036504065
 21
-658.61276991899
 12
911.338788836965
 22
-658.641725946551
 13
911.338788836965
 23
-658.641725946551
  0
SOLID
  8
MOJI
  6
CONTINUOUS
 62
     7
 10
911.338788836965
 20
-659.169114771212
 11
911.338788836965
 21
-658.641725946551
 12
911.353196226288
 22
-659.177341831967
 13
911.353196226288
 23
-659.177341831967
  0
SOLID
  8
MOJI
  6
CONTINUOUS
 62
     7
 10
911.353196226288
 20
-659.177341831967
 11
911.338788836965
 21
-658.641725946551
 12
911.353196226288
 22
-658.693769348974
 13
911.353196226288
 23
-658.693769348974
  0
SOLID
  8
MOJI
  6
CONTINUOUS
 62
     7
 10
911.353196226288
 20
-659.177341831967
 11
911.353196226288
 21
-658.693769348974
 12
911.446985505801
 22
-659.032561694163
 13
911.446985505801
 23
-659.032561694163
  0
ENDBLK
  8
0
  0
BLOCK
  8
0
  2
*U43
 70
     1
 10
0.0
 20
0.0
  0
SOLID
  8
MOJI
  6
CONTINUOUS
 62
     7
 10
910.232527335228
 20
-658.852699856516
 11
910.210775002329
 21
-658.822665806577
 12
910.232527335228
 22
-658.728594029233
 13
910.232527335228
 23
-658.728594029233
  0
SOLID
  8
MOJI
  6
CONTINUOUS
 62
     7
 10
910.232527335228
 20
-658.852699856516
 11
910.232527335228
 21
-658.728594029233
 12
910.420388392086
 22
-659.112084833269
 13
910.420388392086
 23
-659.112084833269
  0
SOLID
  8
MOJI
  6
CONTINUOUS
 62
     7
 10
910.420388392086
 20
-659.112084833269
 11
910.232527335228
 21
-658.728594029233
 12
910.420388392086
 22
-658.855778124048
 13
910.420388392086
 23
-658.855778124048
  0
SOLID
  8
MOJI
  6
CONTINUOUS
 62
     7
 10
910.420388392086
 20
-659.112084833269
 11
910.420388392086
 21
-658.855778124048
 12
910.478300447208
 22
-659.216875512936
 13
910.478300447208
 23
-659.216875512936
  0
SOLID
  8
MOJI
  6
CONTINUOUS
 62
     7
 10
910.478300447208
 20
-659.216875512936
 11
910.420388392086
 21
-658.855778124048
 12
910.478300447208
 22
-658.894985251021
 13
910.478300447208
 23
-658.894985251021
  0
SOLID
  8
MOJI
  6
CONTINUOUS
 62
     7
 10
910.478300447208
 20
-659.216875512936
 11
910.478300447208
 21
-658.894985251021
 12
910.572372224551
 22
-659.387096470639
 13
910.572372224551
 23
-659.387096470639
  0
SOLID
  8
MOJI
  6
CONTINUOUS
 62
     7
 10
910.572372224551
 20
-659.387096470639
 11
910.478300447208
 21
-658.894985251021
 12
910.572372224551
 22
-658.981345389723
 13
910.572372224551
 23
-658.981345389723
  0
SOLID
  8
MOJI
  6
CONTINUOUS
 62
     7
 10
910.572372224551
 20
-659.387096470639
 11
910.572372224551
 21
-658.981345389723
 12
910.637346725419
 22
-659.546283997766
 13
910.637346725419
 23
-659.546283997766
  0
SOLID
  8
MOJI
  6
CONTINUOUS
 62
     7
 10
910.637346725419
 20
-659.546283997766
 11
910.572372224551
 21
-658.981345389723
 12
910.637346725419
 22
-659.04099353357
 13
910.637346725419
 23
-659.04099353357
  0
SOLID
  8
MOJI
  6
CONTINUOUS
 62
     7
 10
910.637346725419
 20
-659.546283997766
 11
910.637346725419
 21
-659.04099353357
 12
910.73848094851
 22
-659.704681825951
 13
910.73848094851
 23
-659.704681825951
  0
SOLID
  8
MOJI
  6
CONTINUOUS
 62
     7
 10
910.73848094851
 20
-659.704681825951
 11
910.637346725419
 21
-659.04099353357
 12
910.73848094851
 22
-659.133837166169
 13
910.73848094851
 23
-659.133837166169
  0
SOLID
  8
MOJI
  6
CONTINUOUS
 62
     7
 10
910.73848094851
 20
-659.704681825951
 11
910.73848094851
 21
-659.133837166169
 12
910.745825892086
 22
-659.716185578836
 13
910.745825892086
 23
-659.716185578836
  0
SOLID
  8
MOJI
  6
CONTINUOUS
 62
     7
 10
910.745825892086
 20
-659.716185578836
 11
910.73848094851
 21
-659.133837166169
 12
910.745825892086
 22
-659.148385804406
 13
910.745825892086
 23
-659.148385804406
  0
SOLID
  8
MOJI
  6
CONTINUOUS
 62
     7
 10
910.745825892086
 20
-659.716185578836
 11
910.745825892086
 21
-659.148385804406
 12
910.803737947208
 22
-659.806888245813
 13
910.803737947208
 23
-659.806888245813
  0
SOLID
  8
MOJI
  6
CONTINUOUS
 62
     7
 10
910.803737947208
 20
-659.806888245813
 11
910.745825892086
 21
-659.148385804406
 12
910.803737947208
 22
-659.280102299225
 13
910.803737947208
 23
-659.280102299225
  0
SOLID
  8
MOJI
  6
CONTINUOUS
 62
     7
 10
910.803737947208
 20
-659.806888245813
 11
910.803737947208
 21
-659.280102299225
 12
910.904872170298
 22
-659.611204058948
 13
910.904872170298
 23
-659.611204058948
  0
SOLID
  8
MOJI
  6
CONTINUOUS
 62
     7
 10
910.904872170298
 20
-659.611204058948
 11
910.803737947208
 21
-659.280102299225
 12
910.904872170298
 22
-659.510124275544
 13
910.904872170298
 23
-659.510124275544
  0
SOLID
  8
MOJI
  6
CONTINUOUS
 62
     7
 10
910.904872170298
 20
-659.611204058948
 11
910.904872170298
 21
-659.510124275544
 12
910.912217113874
 22
-659.596992358226
 13
910.912217113874
 23
-659.596992358226
  0
ENDBLK
  8
0
  0
BLOCK
  8
0
  2
*U44
 70
     1
 10
0.0
 20
0.0
  0
SOLID
  8
MOJI
  6
CONTINUOUS
 62
     7
 10
908.359849221079
 20
-659.368528139561
 11
908.33837938601
 21
-659.358140443078
 12
908.359849221079
 22
-659.235112638174
 13
908.359849221079
 23
-659.235112638174
  0
SOLID
  8
MOJI
  6
CONTINUOUS
 62
     7
 10
908.359849221079
 20
-659.368528139561
 11
908.359849221079
 21
-659.235112638174
 12
908.547992775767
 22
-659.459557163999
 13
908.547992775767
 23
-659.459557163999
  0
SOLID
  8
MOJI
  6
CONTINUOUS
 62
     7
 10
908.547992775767
 20
-659.459557163999
 11
908.359849221079
 21
-659.235112638174
 12
908.547992775767
 22
-659.260844527536
 13
908.547992775767
 23
-659.260844527536
  0
SOLID
  8
MOJI
  6
CONTINUOUS
 62
     7
 10
908.547992775767
 20
-659.459557163999
 11
908.547992775767
 21
-659.260844527536
 12
908.677941777503
 22
-659.577881580864
 13
908.677941777503
 23
-659.577881580864
  0
SOLID
  8
MOJI
  6
CONTINUOUS
 62
     7
 10
908.677941777503
 20
-659.577881580864
 11
908.547992775767
 21
-659.260844527536
 12
908.677941777503
 22
-659.278617303972
 13
908.677941777503
 23
-659.278617303972
  0
SOLID
  8
MOJI
  6
CONTINUOUS
 62
     7
 10
908.677941777503
 20
-659.577881580864
 11
908.677941777503
 21
-659.278617303972
 12
908.78642094417
 22
-659.676656746247
 13
908.78642094417
 23
-659.676656746247
  0
SOLID
  8
MOJI
  6
CONTINUOUS
 62
     7
 10
908.78642094417
 20
-659.676656746247
 11
908.677941777503
 21
-659.278617303972
 12
908.78642094417
 22
-659.331425008126
 13
908.78642094417
 23
-659.331425008126
  0
SOLID
  8
MOJI
  6
CONTINUOUS
 62
     7
 10
908.78642094417
 20
-659.676656746247
 11
908.78642094417
 21
-659.331425008126
 12
908.945467222381
 22
-659.94405330149
 13
908.945467222381
 23
-659.94405330149
  0
SOLID
  8
MOJI
  6
CONTINUOUS
 62
     7
 10
908.945467222381
 20
-659.94405330149
 11
908.78642094417
 21
-659.331425008126
 12
908.945467222381
 22
-659.408848803538
 13
908.945467222381
 23
-659.408848803538
  0
SOLID
  8
MOJI
  6
CONTINUOUS
 62
     7
 10
908.945467222381
 20
-659.94405330149
 11
908.945467222381
 21
-659.408848803538
 12
908.967219555281
 22
-659.980624411177
 13
908.967219555281
 23
-659.980624411177
  0
SOLID
  8
MOJI
  6
CONTINUOUS
 62
     7
 10
908.967219555281
 20
-659.980624411177
 11
908.945467222381
 21
-659.408848803538
 12
908.967219555281
 22
-659.433040797508
 13
908.967219555281
 23
-659.433040797508
  0
SOLID
  8
MOJI
  6
CONTINUOUS
 62
     7
 10
908.967219555281
 20
-659.980624411177
 11
908.967219555281
 21
-659.433040797508
 12
909.140673222815
 22
-660.255494799632
 13
909.140673222815
 23
-660.255494799632
  0
SOLID
  8
MOJI
  6
CONTINUOUS
 62
     7
 10
909.140673222815
 20
-660.255494799632
 11
908.967219555281
 21
-659.433040797508
 12
909.140673222815
 22
-659.625948385787
 13
909.140673222815
 23
-659.625948385787
  0
SOLID
  8
MOJI
  6
CONTINUOUS
 62
     7
 10
909.140673222815
 20
-660.255494799632
 11
909.140673222815
 21
-659.625948385787
 12
909.162425555715
 22
-660.223949668426
 13
909.162425555715
 23
-660.223949668426
  0
SOLID
  8
MOJI
  6
CONTINUOUS
 62
     7
 10
909.162425555715
 20
-660.223949668426
 11
909.140673222815
 21
-659.625948385787
 12
909.162425555715
 22
-659.654904413347
 13
909.162425555715
 23
-659.654904413347
  0
SOLID
  8
MOJI
  6
CONTINUOUS
 62
     7
 10
909.162425555715
 20
-660.223949668426
 11
909.162425555715
 21
-659.654904413347
 12
909.285312111704
 22
-660.04574016096
 13
909.285312111704
 23
-660.04574016096
  0
ENDBLK
  8
0
  0
BLOCK
  8
0
  2
*U45
 70
     1
 10
0.0
 20
0.0
  0
SOLID
  8
MOJI
  6
CONTINUOUS
 62
     7
 10
908.808173277069
 20
-663.819187418698
 11
908.569745108666
 21
-663.772592781403
 12
908.808173277069
 22
-663.678521004059
 13
908.808173277069
 23
-663.678521004059
  0
SOLID
  8
MOJI
  6
CONTINUOUS
 62
     7
 10
908.808173277069
 20
-663.819187418698
 11
908.808173277069
 21
-663.678521004059
 12
908.996316831756
 22
-663.855955224905
 13
908.996316831756
 23
-663.855955224905
  0
SOLID
  8
MOJI
  6
CONTINUOUS
 62
     7
 10
908.996316831756
 20
-663.855955224905
 11
908.808173277069
 21
-663.678521004059
 12
908.996316831756
 22
-663.53388211517
 13
908.996316831756
 23
-663.53388211517
  0
SOLID
  8
MOJI
  6
CONTINUOUS
 62
     7
 10
908.996316831756
 20
-663.855955224905
 11
908.996316831756
 21
-663.53388211517
 12
909.162425555715
 22
-663.888416891646
 13
909.162425555715
 23
-663.888416891646
  0
SOLID
  8
MOJI
  6
CONTINUOUS
 62
     7
 10
909.162425555715
 20
-663.888416891646
 11
908.996316831756
 21
-663.53388211517
 12
909.162425555715
 22
-663.362903754353
 13
909.162425555715
 23
-663.362903754353
  0
SOLID
  8
MOJI
  6
CONTINUOUS
 62
     7
 10
909.162425555715
 20
-663.888416891646
 11
909.162425555715
 21
-663.362903754353
 12
909.256497333058
 22
-663.777585199948
 13
909.256497333058
 23
-663.777585199948
  0
SOLID
  8
MOJI
  6
CONTINUOUS
 62
     7
 10
909.256497333058
 20
-663.777585199948
 11
909.162425555715
 21
-663.362903754353
 12
909.256497333058
 22
-663.266074172462
 13
909.256497333058
 23
-663.266074172462
  0
SOLID
  8
MOJI
  6
CONTINUOUS
 62
     7
 10
909.256497333058
 20
-663.777585199948
 11
909.256497333058
 21
-663.266074172462
 12
909.285312111704
 22
-663.743636753842
 13
909.285312111704
 23
-663.743636753842
  0
SOLID
  8
MOJI
  6
CONTINUOUS
 62
     7
 10
909.285312111704
 20
-663.743636753842
 11
909.256497333058
 21
-663.266074172462
 12
909.285312111704
 22
-663.234767044101
 13
909.285312111704
 23
-663.234767044101
  0
SOLID
  8
MOJI
  6
CONTINUOUS
 62
     7
 10
909.285312111704
 20
-663.743636753842
 11
909.285312111704
 21
-663.234767044101
 12
909.509615388614
 22
-663.475664888857
 13
909.509615388614
 23
-663.475664888857
  0
SOLID
  8
MOJI
  6
CONTINUOUS
 62
     7
 10
909.509615388614
 20
-663.475664888857
 11
909.285312111704
 21
-663.234767044101
 12
909.509615388614
 22
-662.991062535092
 13
909.509615388614
 23
-662.991062535092
  0
SOLID
  8
MOJI
  6
CONTINUOUS
 62
     7
 10
909.509615388614
 20
-663.475664888857
 11
909.509615388614
 21
-662.991062535092
 12
909.545775110836
 22
-663.43246539425
 13
909.545775110836
 23
-663.43246539425
  0
SOLID
  8
MOJI
  6
CONTINUOUS
 62
     7
 10
909.545775110836
 20
-663.43246539425
 11
909.509615388614
 21
-662.991062535092
 12
909.545775110836
 22
-662.950601052812
 13
909.545775110836
 23
-662.950601052812
  0
SOLID
  8
MOJI
  6
CONTINUOUS
 62
     7
 10
909.545775110836
 20
-663.43246539425
 11
909.545775110836
 21
-662.950601052812
 12
909.755388500593
 22
-663.167075568023
 13
909.755388500593
 23
-663.167075568023
  0
SOLID
  8
MOJI
  6
CONTINUOUS
 62
     7
 10
909.755388500593
 20
-663.167075568023
 11
909.545775110836
 21
-662.950601052812
 12
909.755388500593
 22
-662.716050897722
 13
909.755388500593
 23
-662.716050897722
  0
SOLID
  8
MOJI
  6
CONTINUOUS
 62
     7
 10
909.755388500593
 20
-663.167075568023
 11
909.755388500593
 21
-662.716050897722
 12
909.791548222815
 22
-663.121294034658
 13
909.791548222815
 23
-663.121294034658
  0
SOLID
  8
MOJI
  6
CONTINUOUS
 62
     7
 10
909.791548222815
 20
-663.121294034658
 11
909.755388500593
 21
-662.716050897722
 12
909.791548222815
 22
-662.671943983803
 13
909.791548222815
 23
-662.671943983803
  0
SOLID
  8
MOJI
  6
CONTINUOUS
 62
     7
 10
909.791548222815
 20
-663.121294034658
 11
909.791548222815
 21
-662.671943983803
 12
909.986754223249
 22
-662.872429512778
 13
909.986754223249
 23
-662.872429512778
  0
SOLID
  8
MOJI
  6
CONTINUOUS
 62
     7
 10
909.986754223249
 20
-662.872429512778
 11
909.791548222815
 21
-662.671943983803
 12
909.986754223249
 22
-662.433835565691
 13
909.986754223249
 23
-662.433835565691
  0
SOLID
  8
MOJI
  6
CONTINUOUS
 62
     7
 10
909.986754223249
 20
-662.872429512778
 11
909.986754223249
 21
-662.433835565691
 12
910.029976391218
 22
-662.817326369728
 13
910.029976391218
 23
-662.817326369728
  0
SOLID
  8
MOJI
  6
CONTINUOUS
 62
     7
 10
910.029976391218
 20
-662.817326369728
 11
909.986754223249
 21
-662.433835565691
 12
910.029976391218
 22
-662.37976827499
 13
910.029976391218
 23
-662.37976827499
  0
SOLID
  8
MOJI
  6
CONTINUOUS
 62
     7
 10
910.029976391218
 20
-662.817326369728
 11
910.029976391218
 21
-662.37976827499
 12
910.218119945906
 22
-662.558427973961
 13
910.218119945906
 23
-662.558427973961
  0
SOLID
  8
MOJI
  6
CONTINUOUS
 62
     7
 10
910.218119945906
 20
-662.558427973961
 11
910.029976391218
 21
-662.37976827499
 12
910.218119945906
 22
-662.144416538998
 13
910.218119945906
 23
-662.144416538998
  0
SOLID
  8
MOJI
  6
CONTINUOUS
 62
     7
 10
910.218119945906
 20
-662.558427973961
 11
910.218119945906
 21
-662.144416538998
 12
910.261342113874
 22
-662.498951315474
 13
910.261342113874
 23
-662.498951315474
  0
SOLID
  8
MOJI
  6
CONTINUOUS
 62
     7
 10
910.261342113874
 20
-662.498951315474
 11
910.218119945906
 21
-662.144416538998
 12
910.261342113874
 22
-662.085218511031
 13
910.261342113874
 23
-662.085218511031
  0
SOLID
  8
MOJI
  6
CONTINUOUS
 62
     7
 10
910.261342113874
 20
-662.498951315474
 11
910.261342113874
 21
-662.085218511031
 12
910.434795781409
 22
-662.250176296217
 13
910.434795781409
 23
-662.250176296217
  0
SOLID
  8
MOJI
  6
CONTINUOUS
 62
     7
 10
910.434795781409
 20
-662.250176296217
 11
910.261342113874
 21
-662.085218511031
 12
910.434795781409
 22
-661.847652568729
 13
910.434795781409
 23
-661.847652568729
  0
SOLID
  8
MOJI
  6
CONTINUOUS
 62
     7
 10
910.434795781409
 20
-662.250176296217
 11
910.434795781409
 21
-661.847652568729
 12
910.478300447208
 22
-662.187779955882
 13
910.478300447208
 23
-662.187779955882
  0
SOLID
  8
MOJI
  6
CONTINUOUS
 62
     7
 10
910.478300447208
 20
-662.187779955882
 11
910.434795781409
 21
-661.847652568729
 12
910.478300447208
 22
-661.788145210108
 13
910.478300447208
 23
-661.788145210108
  0
SOLID
  8
MOJI
  6
CONTINUOUS
 62
     7
 10
910.478300447208
 20
-662.187779955882
 11
910.478300447208
 21
-661.788145210108
 12
910.651754114742
 22
-661.921309642368
 13
910.651754114742
 23
-661.921309642368
  0
SOLID
  8
MOJI
  6
CONTINUOUS
 62
     7
 10
910.651754114742
 20
-661.921309642368
 11
910.478300447208
 21
-661.788145210108
 12
910.651754114742
 22
-661.55088859846
 13
910.651754114742
 23
-661.55088859846
  0
SOLID
  8
MOJI
  6
CONTINUOUS
 62
     7
 10
910.651754114742
 20
-661.921309642368
 11
910.651754114742
 21
-661.55088859846
 12
910.680851391218
 22
-661.87660859629
 13
910.680851391218
 23
-661.87660859629
  0
SOLID
  8
MOJI
  6
CONTINUOUS
 62
     7
 10
910.680851391218
 20
-661.87660859629
 11
910.651754114742
 21
-661.55088859846
 12
910.680851391218
 22
-661.506187552382
 13
910.680851391218
 23
-661.506187552382
  0
SOLID
  8
MOJI
  6
CONTINUOUS
 62
     7
 10
910.680851391218
 20
-661.87660859629
 11
910.680851391218
 21
-661.506187552382
 12
910.854305058753
 22
-661.603588647531
 13
910.854305058753
 23
-661.603588647531
  0
SOLID
  8
MOJI
  6
CONTINUOUS
 62
     7
 10
910.854305058753
 20
-661.603588647531
 11
910.680851391218
 21
-661.506187552382
 12
910.854305058753
 22
-661.239717238868
 13
910.854305058753
 23
-661.239717238868
  0
SOLID
  8
MOJI
  6
CONTINUOUS
 62
     7
 10
910.854305058753
 20
-661.603588647531
 11
910.854305058753
 21
-661.239717238868
 12
910.883119837399
 22
-661.558233542037
 13
910.883119837399
 23
-661.558233542037
  0
SOLID
  8
MOJI
  6
CONTINUOUS
 62
     7
 10
910.883119837399
 20
-661.558233542037
 11
910.854305058753
 21
-661.239717238868
 12
910.883119837399
 22
-661.195388358032
 13
910.883119837399
 23
-661.195388358032
  0
SOLID
  8
MOJI
  6
CONTINUOUS
 62
     7
 10
910.883119837399
 20
-661.558233542037
 11
910.883119837399
 21
-661.195388358032
 12
911.056573504933
 22
-661.264586379656
 13
911.056573504933
 23
-661.264586379656
  0
SOLID
  8
MOJI
  6
CONTINUOUS
 62
     7
 10
911.056573504933
 20
-661.264586379656
 11
910.883119837399
 21
-661.195388358032
 12
911.056573504933
 22
-660.928545879276
 13
911.056573504933
 23
-660.928545879276
  0
SOLID
  8
MOJI
  6
CONTINUOUS
 62
     7
 10
911.056573504933
 20
-661.264586379656
 11
911.056573504933
 21
-660.928545879276
 12
911.071263392086
 22
-661.239717238868
 13
911.071263392086
 23
-661.239717238868
  0
SOLID
  8
MOJI
  6
CONTINUOUS
 62
     7
 10
911.071263392086
 20
-661.239717238868
 11
911.056573504933
 21
-660.928545879276
 12
911.071263392086
 22
-660.903687766932
 13
911.071263392086
 23
-660.903687766932
  0
SOLID
  8
MOJI
  6
CONTINUOUS
 62
     7
 10
911.071263392086
 20
-661.239717238868
 11
911.071263392086
 21
-660.903687766932
 12
911.244717059621
 22
-660.921342184615
 13
911.244717059621
 23
-660.921342184615
  0
SOLID
  8
MOJI
  6
CONTINUOUS
 62
     7
 10
911.244717059621
 20
-660.921342184615
 11
911.071263392086
 21
-660.903687766932
 12
911.244717059621
 22
-660.610170825023
 13
911.244717059621
 23
-660.610170825023
  0
SOLID
  8
MOJI
  6
CONTINUOUS
 62
     7
 10
911.244717059621
 20
-660.921342184615
 11
911.244717059621
 21
-660.610170825023
 12
911.411108281409
 22
-660.602967130361
 13
911.411108281409
 23
-660.602967130361
  0
SOLID
  8
MOJI
  6
CONTINUOUS
 62
     7
 10
911.411108281409
 20
-660.602967130361
 11
911.244717059621
 21
-660.610170825023
 12
911.411108281409
 22
-660.317166282905
 13
911.411108281409
 23
-660.317166282905
  0
SOLID
  8
MOJI
  6
CONTINUOUS
 62
     7
 10
911.411108281409
 20
-660.602967130361
 11
911.411108281409
 21
-660.317166282905
 12
911.425515670732
 22
-660.574062625981
 13
911.425515670732
 23
-660.574062625981
  0
SOLID
  8
MOJI
  6
CONTINUOUS
 62
     7
 10
911.425515670732
 20
-660.574062625981
 11
911.411108281409
 21
-660.317166282905
 12
911.425515670732
 22
-660.291795770769
 13
911.425515670732
 23
-660.291795770769
  0
SOLID
  8
MOJI
  6
CONTINUOUS
 62
     7
 10
911.425515670732
 20
-660.574062625981
 11
911.425515670732
 21
-660.291795770769
 12
911.483145228024
 22
-660.458444608461
 13
911.483145228024
 23
-660.458444608461
  0
SOLID
  8
MOJI
  6
CONTINUOUS
 62
     7
 10
911.483145228024
 20
-660.458444608461
 11
911.425515670732
 21
-660.291795770769
 12
911.483145228024
 22
-660.190379049849
 13
911.483145228024
 23
-660.190379049849
  0
SOLID
  8
MOJI
  6
CONTINUOUS
 62
     7
 10
911.483145228024
 20
-660.458444608461
 11
911.483145228024
 21
-660.190379049849
 12
911.569872061791
 22
-660.284450827193
 13
911.569872061791
 23
-660.284450827193
  0
ENDBLK
  8
0
  0
BLOCK
  8
0
  2
*U46
 70
     1
 10
0.0
 20
0.0
  0
SOLID
  8
MOJI
  6
CONTINUOUS
 62
     7
 10
907.825080829152
 20
-660.906934795292
 11
907.825080829152
 21
-660.791110685049
 12
907.99118955311
 22
-661.001006572636
 13
907.99118955311
 23
-661.001006572636
  0
SOLID
  8
MOJI
  6
CONTINUOUS
 62
     7
 10
907.99118955311
 20
-661.001006572636
 11
907.825080829152
 21
-660.791110685049
 12
907.99118955311
 22
-660.814290402438
 13
907.99118955311
 23
-660.814290402438
  0
SOLID
  8
MOJI
  6
CONTINUOUS
 62
     7
 10
907.99118955311
 20
-661.001006572636
 11
907.99118955311
 21
-660.814290402438
 12
908.135828441999
 22
-661.137249755905
 13
908.135828441999
 23
-661.137249755905
  0
SOLID
  8
MOJI
  6
CONTINUOUS
 62
     7
 10
908.135828441999
 20
-661.137249755905
 11
907.99118955311
 21
-660.814290402438
 12
908.135828441999
 22
-660.834474101933
 13
908.135828441999
 23
-660.834474101933
  0
SOLID
  8
MOJI
  6
CONTINUOUS
 62
     7
 10
908.135828441999
 20
-661.137249755905
 11
908.135828441999
 21
-660.834474101933
 12
908.23696266509
 22
-661.232513544207
 13
908.23696266509
 23
-661.232513544207
  0
SOLID
  8
MOJI
  6
CONTINUOUS
 62
     7
 10
908.23696266509
 20
-661.232513544207
 11
908.135828441999
 21
-660.834474101933
 12
908.23696266509
 22
-660.88509611805
 13
908.23696266509
 23
-660.88509611805
  0
SOLID
  8
MOJI
  6
CONTINUOUS
 62
     7
 10
908.23696266509
 20
-661.232513544207
 11
908.23696266509
 21
-660.88509611805
 12
908.396008943301
 22
-661.489471194892
 13
908.396008943301
 23
-661.489471194892
  0
SOLID
  8
MOJI
  6
CONTINUOUS
 62
     7
 10
908.396008943301
 20
-661.489471194892
 11
908.23696266509
 21
-660.88509611805
 12
908.396008943301
 22
-660.964705601499
 13
908.396008943301
 23
-660.964705601499
  0
SOLID
  8
MOJI
  6
CONTINUOUS
 62
     7
 10
908.396008943301
 20
-661.489471194892
 11
908.396008943301
 21
-660.964705601499
 12
908.425106219777
 22
-661.536481209137
 13
908.425106219777
 23
-661.536481209137
  0
SOLID
  8
MOJI
  6
CONTINUOUS
 62
     7
 10
908.425106219777
 20
-661.536481209137
 11
908.396008943301
 21
-660.964705601499
 12
908.425106219777
 22
-660.994801505902
 13
908.425106219777
 23
-660.994801505902
  0
SOLID
  8
MOJI
  6
CONTINUOUS
 62
     7
 10
908.425106219777
 20
-661.536481209137
 11
908.425106219777
 21
-660.994801505902
 12
908.605904830888
 22
-661.775862610441
 13
908.605904830888
 23
-661.775862610441
  0
SOLID
  8
MOJI
  6
CONTINUOUS
 62
     7
 10
908.605904830888
 20
-661.775862610441
 11
908.425106219777
 21
-660.994801505902
 12
908.605904830888
 22
-661.181805183747
 13
908.605904830888
 23
-661.181805183747
  0
SOLID
  8
MOJI
  6
CONTINUOUS
 62
     7
 10
908.605904830888
 20
-661.775862610441
 11
908.605904830888
 21
-661.181805183747
 12
908.627374665958
 22
-661.804289151846
 13
908.627374665958
 23
-661.804289151846
  0
SOLID
  8
MOJI
  6
CONTINUOUS
 62
     7
 10
908.627374665958
 20
-661.804289151846
 11
908.605904830888
 21
-661.181805183747
 12
908.627374665958
 22
-661.212150344337
 13
908.627374665958
 23
-661.212150344337
  0
SOLID
  8
MOJI
  6
CONTINUOUS
 62
     7
 10
908.627374665958
 20
-661.804289151846
 11
908.627374665958
 21
-661.212150344337
 12
908.641782055281
 22
-661.793448412648
 13
908.641782055281
 23
-661.793448412648
  0
SOLID
  8
MOJI
  6
CONTINUOUS
 62
     7
 10
908.641782055281
 20
-661.793448412648
 11
908.627374665958
 21
-661.212150344337
 12
908.641782055281
 22
-661.232513544207
 13
908.641782055281
 23
-661.232513544207
  0
SOLID
  8
MOJI
  6
CONTINUOUS
 62
     7
 10
908.641782055281
 20
-661.793448412648
 11
908.641782055281
 21
-661.232513544207
 12
908.714101499725
 22
-661.739032153148
 13
908.714101499725
 23
-661.739032153148
  0
SOLID
  8
MOJI
  6
CONTINUOUS
 62
     7
 10
908.714101499725
 20
-661.739032153148
 11
908.641782055281
 21
-661.232513544207
 12
908.714101499725
 22
-661.473766690908
 13
908.714101499725
 23
-661.473766690908
  0
SOLID
  8
MOJI
  6
CONTINUOUS
 62
     7
 10
908.714101499725
 20
-661.739032153148
 11
908.714101499725
 21
-661.473766690908
 12
908.750261221947
 22
-661.594393264259
 13
908.750261221947
 23
-661.594393264259
  0
ENDBLK
  8
0
  0
BLOCK
  8
0
  2
*U47
 70
     1
 10
0.0
 20
0.0
  0
SOLID
  8
MOJI
  6
CONTINUOUS
 62
     7
 10
908.23696266509
 20
-663.627953892514
 11
908.229900219343
 21
-663.352942255144
 12
908.23696266509
 22
-663.350114518078
 13
908.23696266509
 23
-663.350114518078
  0
SOLID
  8
MOJI
  6
CONTINUOUS
 62
     7
 10
908.23696266509
 20
-663.627953892514
 11
908.23696266509
 21
-663.350114518078
 12
908.302219663788
 22
-663.831600733278
 13
908.302219663788
 23
-663.831600733278
  0
SOLID
  8
MOJI
  6
CONTINUOUS
 62
     7
 10
908.302219663788
 20
-663.831600733278
 11
908.23696266509
 21
-663.350114518078
 12
908.302219663788
 22
-663.323986227584
 13
908.302219663788
 23
-663.323986227584
  0
SOLID
  8
MOJI
  6
CONTINUOUS
 62
     7
 10
908.302219663788
 20
-663.831600733278
 11
908.302219663788
 21
-663.323986227584
 12
908.359849221079
 22
-664.011444696551
 13
908.359849221079
 23
-664.011444696551
  0
SOLID
  8
MOJI
  6
CONTINUOUS
 62
     7
 10
908.359849221079
 20
-664.011444696551
 11
908.302219663788
 21
-663.323986227584
 12
908.359849221079
 22
-663.465603443415
 13
908.359849221079
 23
-663.465603443415
  0
SOLID
  8
MOJI
  6
CONTINUOUS
 62
     7
 10
908.359849221079
 20
-664.011444696551
 11
908.359849221079
 21
-663.465603443415
 12
908.461265941999
 22
-664.140843150699
 13
908.461265941999
 23
-664.140843150699
  0
SOLID
  8
MOJI
  6
CONTINUOUS
 62
     7
 10
908.461265941999
 20
-664.140843150699
 11
908.359849221079
 21
-663.465603443415
 12
908.461265941999
 22
-663.714821975196
 13
908.461265941999
 23
-663.714821975196
  0
SOLID
  8
MOJI
  6
CONTINUOUS
 62
     7
 10
908.461265941999
 20
-664.140843150699
 11
908.461265941999
 21
-663.714821975196
 12
908.569745108666
 22
-664.279252639259
 13
908.569745108666
 23
-664.279252639259
  0
SOLID
  8
MOJI
  6
CONTINUOUS
 62
     7
 10
908.569745108666
 20
-664.279252639259
 11
908.461265941999
 21
-663.714821975196
 12
908.569745108666
 22
-663.772592781403
 13
908.569745108666
 23
-663.772592781403
  0
SOLID
  8
MOJI
  6
CONTINUOUS
 62
     7
 10
908.569745108666
 20
-664.279252639259
 11
908.569745108666
 21
-663.772592781403
 12
908.7649511091
 22
-664.423891528148
 13
908.7649511091
 23
-664.423891528148
  0
SOLID
  8
MOJI
  6
CONTINUOUS
 62
     7
 10
908.7649511091
 20
-664.423891528148
 11
908.569745108666
 21
-663.772592781403
 12
908.7649511091
 22
-663.810740760516
 13
908.7649511091
 23
-663.810740760516
  0
SOLID
  8
MOJI
  6
CONTINUOUS
 62
     7
 10
908.7649511091
 20
-664.423891528148
 11
908.7649511091
 21
-663.810740760516
 12
908.858740388614
 22
-664.30820866682
 13
908.858740388614
 23
-664.30820866682
  0
SOLID
  8
MOJI
  6
CONTINUOUS
 62
     7
 10
908.858740388614
 20
-664.30820866682
 11
908.7649511091
 21
-663.810740760516
 12
908.858740388614
 22
-663.829069456703
 13
908.858740388614
 23
-663.829069456703
  0
SOLID
  8
MOJI
  6
CONTINUOUS
 62
     7
 10
908.858740388614
 20
-664.30820866682
 11
908.858740388614
 21
-663.829069456703
 12
908.894900110836
 22
-664.221340584137
 13
908.894900110836
 23
-664.221340584137
  0
SOLID
  8
MOJI
  6
CONTINUOUS
 62
     7
 10
908.894900110836
 20
-664.221340584137
 11
908.858740388614
 21
-663.829069456703
 12
908.894900110836
 22
-663.83613594198
 13
908.894900110836
 23
-663.83613594198
  0
SOLID
  8
MOJI
  6
CONTINUOUS
 62
     7
 10
908.894900110836
 20
-664.221340584137
 11
908.894900110836
 21
-663.83613594198
 12
909.162425555715
 22
-663.888416891646
 13
909.162425555715
 23
-663.888416891646
  0
ENDBLK
  8
0
  0
BLOCK
  8
0
  2
*U48
 70
     1
 10
0.0
 20
0.0
  0
SOLID
  8
MOJI
  6
CONTINUOUS
 62
     7
 10
902.966400653371
 20
-660.986457934398
 11
902.966400653371
 21
-660.877978767731
 12
903.038720097815
 22
-661.442409431794
 13
903.038720097815
 23
-661.442409431794
  0
SOLID
  8
MOJI
  6
CONTINUOUS
 62
     7
 10
903.038720097815
 20
-661.442409431794
 11
902.966400653371
 21
-660.877978767731
 12
903.038720097815
 22
-660.84902274017
 13
903.038720097815
 23
-660.84902274017
  0
SOLID
  8
MOJI
  6
CONTINUOUS
 62
     7
 10
903.038720097815
 20
-661.456816821116
 11
903.038720097815
 21
-660.84902274017
 12
903.183358986704
 22
-661.452515606345
 13
903.183358986704
 23
-661.452515606345
  0
SOLID
  8
MOJI
  6
CONTINUOUS
 62
     7
 10
903.183358986704
 20
-661.452515606345
 11
903.038720097815
 21
-660.84902274017
 12
903.183358986704
 22
-661.290425599328
 13
903.183358986704
 23
-661.290425599328
  0
SOLID
  8
MOJI
  6
CONTINUOUS
 62
     7
 10
903.183358986704
 20
-661.452515606345
 11
903.183358986704
 21
-661.290425599328
 12
903.233926098249
 22
-661.451011861337
 13
903.233926098249
 23
-661.451011861337
  0
SOLID
  8
MOJI
  6
CONTINUOUS
 62
     7
 10
903.233926098249
 20
-661.451011861337
 11
903.183358986704
 21
-661.290425599328
 12
903.233926098249
 22
-661.355541349111
 13
903.233926098249
 23
-661.355541349111
  0
SOLID
  8
MOJI
  6
CONTINUOUS
 62
     7
 10
903.233926098249
 20
-661.451011861337
 11
903.233926098249
 21
-661.355541349111
 12
903.508796486704
 22
-661.442837873109
 13
903.508796486704
 23
-661.442837873109
  0
SOLID
  8
MOJI
  6
CONTINUOUS
 62
     7
 10
903.508796486704
 20
-661.442837873109
 11
903.233926098249
 21
-661.355541349111
 12
903.508796486704
 22
-661.442409431794
 13
903.508796486704
 23
-661.442409431794
  0
SOLID
  8
MOJI
  6
CONTINUOUS
 62
     7
 10
903.508796486704
 20
-661.442837873109
 11
903.508796486704
 21
-661.442409431794
 12
903.523203876027
 22
-661.442409431794
 13
903.523203876027
 23
-661.442409431794
  0
ENDBLK
  8
0
  0
BLOCK
  8
0
  2
*U49
 70
     1
 10
0.0
 20
0.0
  0
SOLID
  8
MOJI
  6
CONTINUOUS
 62
     7
 10
903.219518708926
 20
-661.833245179407
 11
903.038720097815
 21
-661.456816821116
 12
903.219518708926
 22
-661.451440302652
 13
903.219518708926
 23
-661.451440302652
  0
SOLID
  8
MOJI
  6
CONTINUOUS
 62
     7
 10
903.219518708926
 20
-661.833245179407
 11
903.219518708926
 21
-661.451440302652
 12
903.342405264916
 22
-662.014043790518
 13
903.342405264916
 23
-662.014043790518
  0
SOLID
  8
MOJI
  6
CONTINUOUS
 62
     7
 10
903.342405264916
 20
-662.014043790518
 11
903.219518708926
 21
-661.451440302652
 12
903.342405264916
 22
-661.447785950258
 13
903.342405264916
 23
-661.447785950258
  0
SOLID
  8
MOJI
  6
CONTINUOUS
 62
     7
 10
903.342405264916
 20
-662.014043790518
 11
903.342405264916
 21
-661.447785950258
 12
903.465291820906
 22
-661.891015985613
 13
903.465291820906
 23
-661.891015985613
  0
SOLID
  8
MOJI
  6
CONTINUOUS
 62
     7
 10
903.465291820906
 20
-661.891015985613
 11
903.342405264916
 21
-661.447785950258
 12
903.465291820906
 22
-661.444131597864
 13
903.465291820906
 23
-661.444131597864
  0
SOLID
  8
MOJI
  6
CONTINUOUS
 62
     7
 10
903.465291820906
 20
-661.891015985613
 11
903.465291820906
 21
-661.444131597864
 12
903.494106599551
 22
-661.869404901629
 13
903.494106599551
 23
-661.869404901629
  0
SOLID
  8
MOJI
  6
CONTINUOUS
 62
     7
 10
903.494106599551
 20
-661.869404901629
 11
903.465291820906
 21
-661.444131597864
 12
903.494106599551
 22
-661.443274715234
 13
903.494106599551
 23
-661.443274715234
  0
SOLID
  8
MOJI
  6
CONTINUOUS
 62
     7
 10
903.494106599551
 20
-661.869404901629
 11
903.494106599551
 21
-661.443274715234
 12
903.523203876027
 22
-661.863711419262
 13
903.523203876027
 23
-661.863711419262
  0
SOLID
  8
MOJI
  6
CONTINUOUS
 62
     7
 10
903.523203876027
 20
-661.863711419262
 11
903.494106599551
 21
-661.443274715234
 12
903.523203876027
 22
-661.442409431794
 13
903.523203876027
 23
-661.442409431794
  0
SOLID
  8
MOJI
  6
CONTINUOUS
 62
     7
 10
903.523203876027
 20
-661.863711419262
 11
903.523203876027
 21
-661.442409431794
 12
903.747224655107
 22
-661.819877132694
 13
903.747224655107
 23
-661.819877132694
  0
SOLID
  8
MOJI
  6
CONTINUOUS
 62
     7
 10
903.747224655107
 20
-661.819877132694
 11
903.523203876027
 21
-661.442409431794
 12
903.747224655107
 22
-661.442409431794
 13
903.747224655107
 23
-661.442409431794
  0
SOLID
  8
MOJI
  6
CONTINUOUS
 62
     7
 10
903.747224655107
 20
-661.819877132694
 11
903.747224655107
 21
-661.442409431794
 12
903.826889043128
 22
-661.804289151846
 13
903.826889043128
 23
-661.804289151846
  0
SOLID
  8
MOJI
  6
CONTINUOUS
 62
     7
 10
903.826889043128
 20
-661.804289151846
 11
903.747224655107
 21
-661.442409431794
 12
903.826889043128
 22
-661.442409431794
 13
903.826889043128
 23
-661.442409431794
  0
SOLID
  8
MOJI
  6
CONTINUOUS
 62
     7
 10
903.826889043128
 20
-661.804289151846
 11
903.826889043128
 21
-661.442409431794
 12
904.000342710663
 22
-661.787981542077
 13
904.000342710663
 23
-661.787981542077
  0
SOLID
  8
MOJI
  6
CONTINUOUS
 62
     7
 10
904.000342710663
 20
-661.787981542077
 11
903.826889043128
 21
-661.442409431794
 12
904.000342710663
 22
-661.442409431794
 13
904.000342710663
 23
-661.442409431794
  0
SOLID
  8
MOJI
  6
CONTINUOUS
 62
     7
 10
904.000342710663
 20
-661.787981542077
 11
904.000342710663
 21
-661.442409431794
 12
904.058254765784
 22
-661.782536818946
 13
904.058254765784
 23
-661.782536818946
  0
SOLID
  8
MOJI
  6
CONTINUOUS
 62
     7
 10
904.058254765784
 20
-661.782536818946
 11
904.000342710663
 21
-661.442409431794
 12
904.058254765784
 22
-661.440929714954
 13
904.058254765784
 23
-661.440929714954
  0
SOLID
  8
MOJI
  6
CONTINUOUS
 62
     7
 10
904.058254765784
 20
-661.782536818946
 11
904.058254765784
 21
-661.440929714954
 12
904.282275544864
 22
-661.76009094421
 13
904.282275544864
 23
-661.76009094421
  0
SOLID
  8
MOJI
  6
CONTINUOUS
 62
     7
 10
904.282275544864
 20
-661.76009094421
 11
904.058254765784
 21
-661.440929714954
 12
904.282275544864
 22
-661.435205737132
 13
904.282275544864
 23
-661.435205737132
  0
SOLID
  8
MOJI
  6
CONTINUOUS
 62
     7
 10
904.282275544864
 20
-661.76009094421
 11
904.282275544864
 21
-661.435205737132
 12
904.347250045732
 22
-661.753580791386
 13
904.347250045732
 23
-661.753580791386
  0
SOLID
  8
MOJI
  6
CONTINUOUS
 62
     7
 10
904.347250045732
 20
-661.753580791386
 11
904.282275544864
 21
-661.435205737132
 12
904.347250045732
 22
-661.433671371081
 13
904.347250045732
 23
-661.433671371081
  0
SOLID
  8
MOJI
  6
CONTINUOUS
 62
     7
 10
904.347250045732
 20
-661.753580791386
 11
904.347250045732
 21
-661.433671371081
 12
904.593305655541
 22
-661.73410876471
 13
904.593305655541
 23
-661.73410876471
  0
SOLID
  8
MOJI
  6
CONTINUOUS
 62
     7
 10
904.593305655541
 20
-661.73410876471
 11
904.347250045732
 21
-661.433671371081
 12
904.593305655541
 22
-661.427860793556
 13
904.593305655541
 23
-661.427860793556
  0
SOLID
  8
MOJI
  6
CONTINUOUS
 62
     7
 10
904.593305655541
 20
-661.73410876471
 11
904.593305655541
 21
-661.427860793556
 12
904.622120434187
 22
-661.731828458486
 13
904.622120434187
 23
-661.731828458486
  0
SOLID
  8
MOJI
  6
CONTINUOUS
 62
     7
 10
904.622120434187
 20
-661.731828458486
 11
904.593305655541
 21
-661.427860793556
 12
904.622120434187
 22
-661.426638203114
 13
904.622120434187
 23
-661.426638203114
  0
SOLID
  8
MOJI
  6
CONTINUOUS
 62
     7
 10
904.622120434187
 20
-661.731828458486
 11
904.622120434187
 21
-661.426638203114
 12
904.896708324812
 22
-661.710217374502
 13
904.896708324812
 23
-661.710217374502
  0
SOLID
  8
MOJI
  6
CONTINUOUS
 62
     7
 10
904.896708324812
 20
-661.710217374502
 11
904.622120434187
 21
-661.426638203114
 12
904.896708324812
 22
-661.414987635375
 13
904.896708324812
 23
-661.414987635375
  0
SOLID
  8
MOJI
  6
CONTINUOUS
 62
     7
 10
904.896708324812
 20
-661.710217374502
 11
904.896708324812
 21
-661.414987635375
 12
904.932868047034
 22
-661.709137979809
 13
904.932868047034
 23
-661.709137979809
  0
SOLID
  8
MOJI
  6
CONTINUOUS
 62
     7
 10
904.932868047034
 20
-661.709137979809
 11
904.896708324812
 21
-661.414987635375
 12
904.932868047034
 22
-661.413453404233
 13
904.932868047034
 23
-661.413453404233
  0
SOLID
  8
MOJI
  6
CONTINUOUS
 62
     7
 10
904.932868047034
 20
-661.709137979809
 11
904.932868047034
 21
-661.413453404233
 12
904.969027769256
 22
-661.708058585116
 13
904.969027769256
 23
-661.708058585116
  0
SOLID
  8
MOJI
  6
CONTINUOUS
 62
     7
 10
904.969027769256
 20
-661.708058585116
 11
904.932868047034
 21
-661.413453404233
 12
904.969027769256
 22
-661.413453404233
 13
904.969027769256
 23
-661.413453404233
  0
SOLID
  8
MOJI
  6
CONTINUOUS
 62
     7
 10
904.969027769256
 20
-661.708058585116
 11
904.969027769256
 21
-661.413453404233
 12
905.142763934621
 22
-661.702872430926
 13
905.142763934621
 23
-661.702872430926
  0
SOLID
  8
MOJI
  6
CONTINUOUS
 62
     7
 10
905.142763934621
 20
-661.702872430926
 11
904.969027769256
 21
-661.413453404233
 12
905.142763934621
 22
-661.407213925491
 13
905.142763934621
 23
-661.407213925491
  0
SOLID
  8
MOJI
  6
CONTINUOUS
 62
     7
 10
905.142763934621
 20
-661.702872430926
 11
905.142763934621
 21
-661.407213925491
 12
905.374129657277
 22
-661.696802651164
 13
905.374129657277
 23
-661.696802651164
  0
SOLID
  8
MOJI
  6
CONTINUOUS
 62
     7
 10
905.374129657277
 20
-661.696802651164
 11
905.142763934621
 21
-661.407213925491
 12
905.374129657277
 22
-661.398904765995
 13
905.374129657277
 23
-661.398904765995
  0
SOLID
  8
MOJI
  6
CONTINUOUS
 62
     7
 10
905.374129657277
 20
-661.696802651164
 11
905.374129657277
 21
-661.398904765995
 12
905.417351825246
 22
-661.695668736264
 13
905.417351825246
 23
-661.695668736264
  0
SOLID
  8
MOJI
  6
CONTINUOUS
 62
     7
 10
905.417351825246
 20
-661.695668736264
 11
905.374129657277
 21
-661.398904765995
 12
905.417351825246
 22
-661.396989622149
 13
905.417351825246
 23
-661.396989622149
  0
SOLID
  8
MOJI
  6
CONTINUOUS
 62
     7
 10
905.417351825246
 20
-661.695668736264
 11
905.417351825246
 21
-661.396989622149
 12
905.699284659447
 22
-661.695668736264
 13
905.699284659447
 23
-661.695668736264
  0
SOLID
  8
MOJI
  6
CONTINUOUS
 62
     7
 10
905.699284659447
 20
-661.695668736264
 11
905.417351825246
 21
-661.396989622149
 12
905.699284659447
 22
-661.384497376672
 13
905.699284659447
 23
-661.384497376672
  0
SOLID
  8
MOJI
  6
CONTINUOUS
 62
     7
 10
905.699284659447
 20
-661.695668736264
 11
905.699284659447
 21
-661.384497376672
 12
905.945057771426
 22
-661.68030416565
 13
905.945057771426
 23
-661.68030416565
  0
SOLID
  8
MOJI
  6
CONTINUOUS
 62
     7
 10
905.945057771426
 20
-661.68030416565
 11
905.699284659447
 21
-661.384497376672
 12
905.945057771426
 22
-661.370089987349
 13
905.945057771426
 23
-661.370089987349
  0
SOLID
  8
MOJI
  6
CONTINUOUS
 62
     7
 10
905.945057771426
 20
-661.68030416565
 11
905.945057771426
 21
-661.370089987349
 12
906.104104049638
 22
-661.670361345815
 13
906.104104049638
 23
-661.670361345815
  0
SOLID
  8
MOJI
  6
CONTINUOUS
 62
     7
 10
906.104104049638
 20
-661.670361345815
 11
905.945057771426
 21
-661.370089987349
 12
906.104104049638
 22
-661.355541349111
 13
906.104104049638
 23
-661.355541349111
  0
SOLID
  8
MOJI
  6
CONTINUOUS
 62
     7
 10
906.104104049638
 20
-661.670361345815
 11
906.104104049638
 21
-661.355541349111
 12
906.111448993215
 22
-661.669902174739
 13
906.111448993215
 23
-661.669902174739
  0
SOLID
  8
MOJI
  6
CONTINUOUS
 62
     7
 10
906.111448993215
 20
-661.669902174739
 11
906.104104049638
 21
-661.355541349111
 12
906.111448993215
 22
-661.355541349111
 13
906.111448993215
 23
-661.355541349111
  0
SOLID
  8
MOJI
  6
CONTINUOUS
 62
     7
 10
906.111448993215
 20
-661.669902174739
 11
906.111448993215
 21
-661.355541349111
 12
906.342814715871
 22
-661.65543828585
 13
906.342814715871
 23
-661.65543828585
  0
SOLID
  8
MOJI
  6
CONTINUOUS
 62
     7
 10
906.342814715871
 20
-661.65543828585
 11
906.111448993215
 21
-661.355541349111
 12
906.342814715871
 22
-661.268673266429
 13
906.342814715871
 23
-661.268673266429
  0
SOLID
  8
MOJI
  6
CONTINUOUS
 62
     7
 10
906.342814715871
 20
-661.65543828585
 11
906.342814715871
 21
-661.268673266429
 12
906.443948938961
 22
-661.649115853345
 13
906.443948938961
 23
-661.649115853345
  0
SOLID
  8
MOJI
  6
CONTINUOUS
 62
     7
 10
906.443948938961
 20
-661.649115853345
 11
906.342814715871
 21
-661.268673266429
 12
906.443948938961
 22
-661.174601489085
 13
906.443948938961
 23
-661.174601489085
  0
SOLID
  8
MOJI
  6
CONTINUOUS
 62
     7
 10
906.443948938961
 20
-661.649115853345
 11
906.443948938961
 21
-661.174601489085
 12
906.697066994517
 22
-661.633292111654
 13
906.697066994517
 23
-661.633292111654
  0
SOLID
  8
MOJI
  6
CONTINUOUS
 62
     7
 10
906.697066994517
 20
-661.633292111654
 11
906.443948938961
 21
-661.174601489085
 12
906.697066994517
 22
-661.333789016212
 13
906.697066994517
 23
-661.333789016212
  0
SOLID
  8
MOJI
  6
CONTINUOUS
 62
     7
 10
906.697066994517
 20
-661.633292111654
 11
906.697066994517
 21
-661.333789016212
 12
906.733226716739
 22
-661.631031577127
 13
906.733226716739
 23
-661.631031577127
  0
SOLID
  8
MOJI
  6
CONTINUOUS
 62
     7
 10
906.733226716739
 20
-661.631031577127
 11
906.697066994517
 21
-661.333789016212
 12
906.733226716739
 22
-661.384497376672
 13
906.733226716739
 23
-661.384497376672
  0
SOLID
  8
MOJI
  6
CONTINUOUS
 62
     7
 10
906.733226716739
 20
-661.631031577127
 11
906.733226716739
 21
-661.384497376672
 12
906.856113272729
 22
-661.62334929182
 13
906.856113272729
 23
-661.62334929182
  0
ENDBLK
  8
0
  0
BLOCK
  8
0
  2
*U50
 70
     1
 10
0.0
 20
0.0
  0
SOLID
  8
MOJI
  6
CONTINUOUS
 62
     7
 10
905.995624882971
 20
-661.702872430926
 11
905.699284659447
 21
-661.695668736264
 12
905.995624882971
 22
-661.677142949397
 13
905.995624882971
 23
-661.677142949397
  0
SOLID
  8
MOJI
  6
CONTINUOUS
 62
     7
 10
905.995624882971
 20
-661.702872430926
 11
905.995624882971
 21
-661.677142949397
 12
906.306654993649
 22
-661.710217374502
 13
906.306654993649
 23
-661.710217374502
  0
SOLID
  8
MOJI
  6
CONTINUOUS
 62
     7
 10
906.306654993649
 20
-661.710217374502
 11
905.995624882971
 21
-661.677142949397
 12
906.306654993649
 22
-661.657698820378
 13
906.306654993649
 23
-661.657698820378
  0
SOLID
  8
MOJI
  6
CONTINUOUS
 62
     7
 10
906.306654993649
 20
-661.710217374502
 11
906.306654993649
 21
-661.657698820378
 12
906.46570127186
 22
-661.717421069163
 13
906.46570127186
 23
-661.717421069163
  0
SOLID
  8
MOJI
  6
CONTINUOUS
 62
     7
 10
906.46570127186
 20
-661.717421069163
 11
906.306654993649
 21
-661.657698820378
 12
906.46570127186
 22
-661.647756000543
 13
906.46570127186
 23
-661.647756000543
  0
SOLID
  8
MOJI
  6
CONTINUOUS
 62
     7
 10
906.46570127186
 20
-661.717421069163
 11
906.46570127186
 21
-661.647756000543
 12
906.747634106062
 22
-661.775333124285
 13
906.747634106062
 23
-661.775333124285
  0
SOLID
  8
MOJI
  6
CONTINUOUS
 62
     7
 10
906.747634106062
 20
-661.775333124285
 11
906.46570127186
 21
-661.647756000543
 12
906.747634106062
 22
-661.630130895401
 13
906.747634106062
 23
-661.630130895401
  0
SOLID
  8
MOJI
  6
CONTINUOUS
 62
     7
 10
906.747634106062
 20
-661.775333124285
 11
906.747634106062
 21
-661.630130895401
 12
906.856113272729
 22
-661.62334929182
 13
906.856113272729
 23
-661.62334929182
  0
ENDBLK
  8
0
  0
BLOCK
  8
0
  2
*U51
 70
     1
 10
0.0
 20
0.0
  0
SOLID
  8
MOJI
  6
CONTINUOUS
 62
     7
 10
901.628773428979
 20
-658.844156608282
 11
901.607303593909
 21
-658.822665806577
 12
901.628773428979
 22
-658.728594029233
 13
901.628773428979
 23
-658.728594029233
  0
SOLID
  8
MOJI
  6
CONTINUOUS
 62
     7
 10
901.628773428979
 20
-658.844156608282
 11
901.628773428979
 21
-658.728594029233
 12
901.751942482798
 22
-658.96744594438
 13
901.751942482798
 23
-658.96744594438
  0
SOLID
  8
MOJI
  6
CONTINUOUS
 62
     7
 10
901.751942482798
 20
-658.96744594438
 11
901.628773428979
 21
-658.728594029233
 12
901.751942482798
 22
-658.780609432604
 13
901.751942482798
 23
-658.780609432604
  0
SOLID
  8
MOJI
  6
CONTINUOUS
 62
     7
 10
901.751942482798
 20
-658.96744594438
 11
901.751942482798
 21
-658.780609432604
 12
901.947148483232
 22
-659.271413609311
 13
901.947148483232
 23
-659.271413609311
  0
SOLID
  8
MOJI
  6
CONTINUOUS
 62
     7
 10
901.947148483232
 20
-659.271413609311
 11
901.751942482798
 21
-658.780609432604
 12
901.947148483232
 22
-658.863046688863
 13
901.947148483232
 23
-658.863046688863
  0
SOLID
  8
MOJI
  6
CONTINUOUS
 62
     7
 10
901.947148483232
 20
-659.271413609311
 11
901.947148483232
 21
-658.863046688863
 12
901.954210928978
 22
-659.285925484132
 13
901.954210928978
 23
-659.285925484132
  0
SOLID
  8
MOJI
  6
CONTINUOUS
 62
     7
 10
901.954210928978
 20
-659.285925484132
 11
901.947148483232
 21
-658.863046688863
 12
901.954210928978
 22
-658.86602922346
 13
901.954210928978
 23
-658.86602922346
  0
SOLID
  8
MOJI
  6
CONTINUOUS
 62
     7
 10
901.954210928978
 20
-659.285925484132
 11
901.954210928978
 21
-658.86602922346
 12
902.091504874291
 22
-659.568036330665
 13
902.091504874291
 23
-659.568036330665
  0
SOLID
  8
MOJI
  6
CONTINUOUS
 62
     7
 10
902.091504874291
 20
-659.568036330665
 11
901.954210928978
 21
-658.86602922346
 12
902.091504874291
 22
-658.993653232597
 13
902.091504874291
 23
-658.993653232597
  0
SOLID
  8
MOJI
  6
CONTINUOUS
 62
     7
 10
902.091504874291
 20
-659.568036330665
 11
902.091504874291
 21
-658.993653232597
 12
902.156761872989
 22
-659.602874051324
 13
902.156761872989
 23
-659.602874051324
  0
SOLID
  8
MOJI
  6
CONTINUOUS
 62
     7
 10
902.156761872989
 20
-659.602874051324
 11
902.091504874291
 21
-658.993653232597
 12
902.156761872989
 22
-659.054314027063
 13
902.156761872989
 23
-659.054314027063
  0
SOLID
  8
MOJI
  6
CONTINUOUS
 62
     7
 10
902.156761872989
 20
-659.602874051324
 11
902.156761872989
 21
-659.054314027063
 12
902.178514205888
 22
-659.614486624877
 13
902.178514205888
 23
-659.614486624877
  0
SOLID
  8
MOJI
  6
CONTINUOUS
 62
     7
 10
902.178514205888
 20
-659.614486624877
 11
902.156761872989
 21
-659.054314027063
 12
902.178514205888
 22
-659.090473749285
 13
902.178514205888
 23
-659.090473749285
  0
SOLID
  8
MOJI
  6
CONTINUOUS
 62
     7
 10
902.178514205888
 20
-659.614486624877
 11
902.178514205888
 21
-659.090473749285
 12
902.199984040958
 22
-659.625948385787
 13
902.199984040958
 23
-659.625948385787
  0
SOLID
  8
MOJI
  6
CONTINUOUS
 62
     7
 10
902.199984040958
 20
-659.625948385787
 11
902.178514205888
 21
-659.090473749285
 12
902.199984040958
 22
-659.166571141208
 13
902.199984040958
 23
-659.166571141208
  0
SOLID
  8
MOJI
  6
CONTINUOUS
 62
     7
 10
902.199984040958
 20
-659.625948385787
 11
902.199984040958
 21
-659.166571141208
 12
902.286710874725
 22
-659.473964553321
 13
902.286710874725
 23
-659.473964553321
  0
ENDBLK
  8
0
  0
BLOCK
  8
0
  2
*U52
 70
     1
 10
0.0
 20
0.0
  0
SOLID
  8
MOJI
  6
CONTINUOUS
 62
     7
 10
901.202484203718
 20
-659.419011031688
 11
901.180731870819
 21
-659.387096470639
 12
901.202484203718
 22
-659.300228387957
 13
901.202484203718
 23
-659.300228387957
  0
SOLID
  8
MOJI
  6
CONTINUOUS
 62
     7
 10
901.202484203718
 20
-659.419011031688
 11
901.202484203718
 21
-659.300228387957
 12
901.383000316999
 22
-659.683860440908
 13
901.383000316999
 23
-659.683860440908
  0
SOLID
  8
MOJI
  6
CONTINUOUS
 62
     7
 10
901.383000316999
 20
-659.683860440908
 11
901.202484203718
 21
-659.300228387957
 12
901.383000316999
 22
-659.417252626912
 13
901.383000316999
 23
-659.417252626912
  0
SOLID
  8
MOJI
  6
CONTINUOUS
 62
     7
 10
901.383000316999
 20
-659.683860440908
 11
901.383000316999
 21
-659.417252626912
 12
901.448257315697
 22
-659.798848609617
 13
901.448257315697
 23
-659.798848609617
  0
SOLID
  8
MOJI
  6
CONTINUOUS
 62
     7
 10
901.448257315697
 20
-659.798848609617
 11
901.383000316999
 21
-659.417252626912
 12
901.448257315697
 22
-659.459557163999
 13
901.448257315697
 23
-659.459557163999
  0
SOLID
  8
MOJI
  6
CONTINUOUS
 62
     7
 10
901.448257315697
 20
-659.798848609617
 11
901.448257315697
 21
-659.459557163999
 12
901.534984149465
 22
-659.951668383616
 13
901.534984149465
 23
-659.951668383616
  0
SOLID
  8
MOJI
  6
CONTINUOUS
 62
     7
 10
901.534984149465
 20
-659.951668383616
 11
901.448257315697
 21
-659.459557163999
 12
901.534984149465
 22
-659.541575700602
 13
901.534984149465
 23
-659.541575700602
  0
SOLID
  8
MOJI
  6
CONTINUOUS
 62
     7
 10
901.534984149465
 20
-659.951668383616
 11
901.534984149465
 21
-659.541575700602
 12
901.599958650333
 22
-660.110855910743
 13
901.599958650333
 23
-660.110855910743
  0
SOLID
  8
MOJI
  6
CONTINUOUS
 62
     7
 10
901.599958650333
 20
-660.110855910743
 11
901.534984149465
 21
-659.541575700602
 12
901.599958650333
 22
-659.603022812714
 13
901.599958650333
 23
-659.603022812714
  0
SOLID
  8
MOJI
  6
CONTINUOUS
 62
     7
 10
901.599958650333
 20
-660.110855910743
 11
901.599958650333
 21
-659.603022812714
 12
901.708437816999
 22
-660.27375133691
 13
901.708437816999
 23
-660.27375133691
  0
SOLID
  8
MOJI
  6
CONTINUOUS
 62
     7
 10
901.708437816999
 20
-660.27375133691
 11
901.599958650333
 21
-659.603022812714
 12
901.708437816999
 22
-659.705612773808
 13
901.708437816999
 23
-659.705612773808
  0
SOLID
  8
MOJI
  6
CONTINUOUS
 62
     7
 10
901.708437816999
 20
-660.27375133691
 11
901.708437816999
 21
-659.705612773808
 12
901.715782760576
 22
-660.284780714724
 13
901.715782760576
 23
-660.284780714724
  0
SOLID
  8
MOJI
  6
CONTINUOUS
 62
     7
 10
901.715782760576
 20
-660.284780714724
 11
901.708437816999
 21
-659.705612773808
 12
901.715782760576
 22
-659.712816468469
 13
901.715782760576
 23
-659.712816468469
  0
SOLID
  8
MOJI
  6
CONTINUOUS
 62
     7
 10
901.715782760576
 20
-660.284780714724
 11
901.715782760576
 21
-659.712816468469
 12
901.773412317867
 22
-660.371318909875
 13
901.773412317867
 23
-660.371318909875
  0
SOLID
  8
MOJI
  6
CONTINUOUS
 62
     7
 10
901.773412317867
 20
-660.371318909875
 11
901.715782760576
 21
-659.712816468469
 12
901.773412317867
 22
-659.84394162458
 13
901.773412317867
 23
-659.84394162458
  0
SOLID
  8
MOJI
  6
CONTINUOUS
 62
     7
 10
901.773412317867
 20
-660.371318909875
 11
901.773412317867
 21
-659.84394162458
 12
901.874829038788
 22
-660.161423022288
 13
901.874829038788
 23
-660.161423022288
  0
SOLID
  8
MOJI
  6
CONTINUOUS
 62
     7
 10
901.874829038788
 20
-660.161423022288
 11
901.773412317867
 21
-659.84394162458
 12
901.874829038788
 22
-660.074696188521
 13
901.874829038788
 23
-660.074696188521
  0
ENDBLK
  8
0
  0
BLOCK
  8
0
  2
*U53
 70
     1
 10
0.0
 20
0.0
  0
SOLID
  8
MOJI
  6
CONTINUOUS
 62
     7
 10
898.382590866044
 20
-663.562838142731
 11
898.288801586531
 21
-663.468766365387
 12
898.382590866044
 22
-663.341506258506
 13
898.382590866044
 23
-663.341506258506
  0
SOLID
  8
MOJI
  6
CONTINUOUS
 62
     7
 10
898.382590866044
 20
-663.562838142731
 11
898.382590866044
 21
-663.341506258506
 12
898.491070032711
 22
-663.439810337827
 13
898.491070032711
 23
-663.439810337827
  0
SOLID
  8
MOJI
  6
CONTINUOUS
 62
     7
 10
898.491070032711
 20
-663.439810337827
 11
898.382590866044
 21
-663.341506258506
 12
898.491070032711
 22
-663.194313845727
 13
898.491070032711
 23
-663.194313845727
  0
SOLID
  8
MOJI
  6
CONTINUOUS
 62
     7
 10
898.491070032711
 20
-663.439810337827
 11
898.491070032711
 21
-663.194313845727
 12
898.51282236561
 22
-663.413682047332
 13
898.51282236561
 23
-663.413682047332
  0
SOLID
  8
MOJI
  6
CONTINUOUS
 62
     7
 10
898.51282236561
 20
-663.413682047332
 11
898.491070032711
 21
-663.194313845727
 12
898.51282236561
 22
-663.164798700457
 13
898.51282236561
 23
-663.164798700457
  0
SOLID
  8
MOJI
  6
CONTINUOUS
 62
     7
 10
898.51282236561
 20
-663.413682047332
 11
898.51282236561
 21
-663.164798700457
 12
898.708028366044
 22
-663.17920608978
 13
898.708028366044
 23
-663.17920608978
  0
SOLID
  8
MOJI
  6
CONTINUOUS
 62
     7
 10
898.708028366044
 20
-663.17920608978
 11
898.51282236561
 21
-663.164798700457
 12
898.708028366044
 22
-662.871735525326
 13
898.708028366044
 23
-662.871735525326
  0
SOLID
  8
MOJI
  6
CONTINUOUS
 62
     7
 10
898.708028366044
 20
-663.17920608978
 11
898.708028366044
 21
-662.871735525326
 12
898.729780698944
 22
-663.150911063
 13
898.729780698944
 23
-663.150911063
  0
SOLID
  8
MOJI
  6
CONTINUOUS
 62
     7
 10
898.729780698944
 20
-663.150911063
 11
898.708028366044
 21
-662.871735525326
 12
898.729780698944
 22
-662.839078702627
 13
898.729780698944
 23
-662.839078702627
  0
SOLID
  8
MOJI
  6
CONTINUOUS
 62
     7
 10
898.729780698944
 20
-663.150911063
 11
898.729780698944
 21
-662.839078702627
 12
898.924986699378
 22
-662.896990757748
 13
898.924986699378
 23
-662.896990757748
  0
SOLID
  8
MOJI
  6
CONTINUOUS
 62
     7
 10
898.924986699378
 20
-662.896990757748
 11
898.729780698944
 21
-662.839078702627
 12
898.924986699378
 22
-662.506155010136
 13
898.924986699378
 23
-662.506155010136
  0
SOLID
  8
MOJI
  6
CONTINUOUS
 62
     7
 10
898.924986699378
 20
-662.896990757748
 11
898.924986699378
 21
-662.506155010136
 12
899.112847756235
 22
-662.607983838574
 13
899.112847756235
 23
-662.607983838574
  0
SOLID
  8
MOJI
  6
CONTINUOUS
 62
     7
 10
899.112847756235
 20
-662.607983838574
 11
898.924986699378
 21
-662.506155010136
 12
899.112847756235
 22
-662.15162023366
 13
899.112847756235
 23
-662.15162023366
  0
SOLID
  8
MOJI
  6
CONTINUOUS
 62
     7
 10
899.112847756235
 20
-662.607983838574
 11
899.112847756235
 21
-662.15162023366
 12
899.127255145558
 22
-662.585819398156
 13
899.127255145558
 23
-662.585819398156
  0
SOLID
  8
MOJI
  6
CONTINUOUS
 62
     7
 10
899.127255145558
 20
-662.585819398156
 11
899.112847756235
 21
-662.15162023366
 12
899.127255145558
 22
-662.121561820431
 13
899.127255145558
 23
-662.121561820431
  0
SOLID
  8
MOJI
  6
CONTINUOUS
 62
     7
 10
899.127255145558
 20
-662.585819398156
 11
899.127255145558
 21
-662.121561820431
 12
899.28630142377
 22
-662.324402328599
 13
899.28630142377
 23
-662.324402328599
  0
SOLID
  8
MOJI
  6
CONTINUOUS
 62
     7
 10
899.28630142377
 20
-662.324402328599
 11
899.127255145558
 21
-662.121561820431
 12
899.28630142377
 22
-661.789740513608
 13
899.28630142377
 23
-661.789740513608
  0
SOLID
  8
MOJI
  6
CONTINUOUS
 62
     7
 10
899.28630142377
 20
-662.324402328599
 11
899.28630142377
 21
-661.789740513608
 12
899.329806089569
 22
-662.252895705665
 13
899.329806089569
 23
-662.252895705665
  0
SOLID
  8
MOJI
  6
CONTINUOUS
 62
     7
 10
899.329806089569
 20
-662.252895705665
 11
899.28630142377
 21
-661.789740513608
 12
899.329806089569
 22
-661.685028485555
 13
899.329806089569
 23
-661.685028485555
  0
SOLID
  8
MOJI
  6
CONTINUOUS
 62
     7
 10
899.329806089569
 20
-662.252895705665
 11
899.329806089569
 21
-661.685028485555
 12
899.445630199812
 22
-662.034310354755
 13
899.445630199812
 23
-662.034310354755
  0
SOLID
  8
MOJI
  6
CONTINUOUS
 62
     7
 10
899.445630199812
 20
-662.034310354755
 11
899.329806089569
 21
-661.685028485555
 12
899.445630199812
 22
-661.406249709571
 13
899.445630199812
 23
-661.406249709571
  0
SOLID
  8
MOJI
  6
CONTINUOUS
 62
     7
 10
899.445630199812
 20
-662.034310354755
 11
899.445630199812
 21
-661.406249709571
 12
899.517667146426
 22
-661.898360929189
 13
899.517667146426
 23
-661.898360929189
  0
SOLID
  8
MOJI
  6
CONTINUOUS
 62
     7
 10
899.517667146426
 20
-661.898360929189
 11
899.445630199812
 21
-661.406249709571
 12
899.517667146426
 22
-661.211214258219
 13
899.517667146426
 23
-661.211214258219
  0
SOLID
  8
MOJI
  6
CONTINUOUS
 62
     7
 10
899.517667146426
 20
-661.898360929189
 11
899.517667146426
 21
-661.211214258219
 12
899.539419479326
 22
-661.854856263391
 13
899.539419479326
 23
-661.854856263391
  0
SOLID
  8
MOJI
  6
CONTINUOUS
 62
     7
 10
899.539419479326
 20
-661.854856263391
 11
899.517667146426
 21
-661.211214258219
 12
899.539419479326
 22
-661.152321200359
 13
899.539419479326
 23
-661.152321200359
  0
SOLID
  8
MOJI
  6
CONTINUOUS
 62
     7
 10
899.539419479326
 20
-661.854856263391
 11
899.539419479326
 21
-661.152321200359
 12
899.553826868649
 22
-661.826041484745
 13
899.553826868649
 23
-661.826041484745
  0
SOLID
  8
MOJI
  6
CONTINUOUS
 62
     7
 10
899.553826868649
 20
-661.826041484745
 11
899.539419479326
 21
-661.152321200359
 12
899.553826868649
 22
-661.113314110089
 13
899.553826868649
 23
-661.113314110089
  0
SOLID
  8
MOJI
  6
CONTINUOUS
 62
     7
 10
899.553826868649
 20
-660.353180156708
 11
899.539419479326
 21
-660.342362882314
 12
899.553826868649
 22
-660.21933507741
 13
899.553826868649
 23
-660.21933507741
  0
SOLID
  8
MOJI
  6
CONTINUOUS
 62
     7
 10
899.553826868649
 20
-661.826041484745
 11
899.553826868649
 21
-661.113314110089
 12
899.589986590871
 22
-661.753722040301
 13
899.589986590871
 23
-661.753722040301
  0
SOLID
  8
MOJI
  6
CONTINUOUS
 62
     7
 10
899.589986590871
 20
-661.753722040301
 11
899.553826868649
 21
-661.113314110089
 12
899.589986590871
 22
-661.015413961959
 13
899.589986590871
 23
-661.015413961959
  0
SOLID
  8
MOJI
  6
CONTINUOUS
 62
     7
 10
899.553826868649
 20
-660.353180156708
 11
899.553826868649
 21
-660.21933507741
 12
899.589986590871
 22
-660.380329394403
 13
899.589986590871
 23
-660.380329394403
  0
SOLID
  8
MOJI
  6
CONTINUOUS
 62
     7
 10
899.589986590871
 20
-660.380329394403
 11
899.553826868649
 21
-660.21933507741
 12
899.589986590871
 22
-660.234571959333
 13
899.589986590871
 23
-660.234571959333
  0
SOLID
  8
MOJI
  6
CONTINUOUS
 62
     7
 10
899.589986590871
 20
-661.753722040301
 11
899.589986590871
 21
-661.015413961959
 12
899.626146313093
 22
-661.681402595856
 13
899.626146313093
 23
-661.681402595856
  0
SOLID
  8
MOJI
  6
CONTINUOUS
 62
     7
 10
899.626146313093
 20
-661.681402595856
 11
899.589986590871
 21
-661.015413961959
 12
899.626146313093
 22
-660.903262323504
 13
899.626146313093
 23
-660.903262323504
  0
SOLID
  8
MOJI
  6
CONTINUOUS
 62
     7
 10
899.589986590871
 20
-660.380329394403
 11
899.589986590871
 21
-660.234571959333
 12
899.626146313093
 22
-660.407478632097
 13
899.626146313093
 23
-660.407478632097
  0
SOLID
  8
MOJI
  6
CONTINUOUS
 62
     7
 10
899.626146313093
 20
-660.407478632097
 11
899.589986590871
 21
-660.234571959333
 12
899.626146313093
 22
-660.249808841256
 13
899.626146313093
 23
-660.249808841256
  0
SOLID
  8
MOJI
  6
CONTINUOUS
 62
     7
 10
899.626146313093
 20
-661.681402595856
 11
899.626146313093
 21
-660.903262323504
 12
899.662306035315
 22
-661.609083151412
 13
899.662306035315
 23
-661.609083151412
  0
SOLID
  8
MOJI
  6
CONTINUOUS
 62
     7
 10
899.662306035315
 20
-661.609083151412
 11
899.626146313093
 21
-660.903262323504
 12
899.662306035315
 22
-660.791110685049
 13
899.662306035315
 23
-660.791110685049
  0
SOLID
  8
MOJI
  6
CONTINUOUS
 62
     7
 10
899.626146313093
 20
-660.407478632097
 11
899.626146313093
 21
-660.249808841256
 12
899.662306035315
 22
-660.791110685049
 13
899.662306035315
 23
-660.791110685049
  0
SOLID
  8
MOJI
  6
CONTINUOUS
 62
     7
 10
899.662306035315
 20
-660.791110685049
 11
899.626146313093
 21
-660.249808841256
 12
899.662306035315
 22
-660.265045723179
 13
899.662306035315
 23
-660.265045723179
  0
SOLID
  8
MOJI
  6
CONTINUOUS
 62
     7
 10
899.662306035315
 20
-661.609083151412
 11
899.662306035315
 21
-660.265045723179
 12
899.705810701114
 22
-661.522073819814
 13
899.705810701114
 23
-661.522073819814
  0
SOLID
  8
MOJI
  6
CONTINUOUS
 62
     7
 10
899.705810701114
 20
-661.522073819814
 11
899.662306035315
 21
-660.265045723179
 12
899.705810701114
 22
-660.283377596743
 13
899.705810701114
 23
-660.283377596743
  0
SOLID
  8
MOJI
  6
CONTINUOUS
 62
     7
 10
899.705810701114
 20
-661.522073819814
 11
899.705810701114
 21
-660.283377596743
 12
899.828697257103
 22
-661.234871526907
 13
899.828697257103
 23
-661.234871526907
  0
SOLID
  8
MOJI
  6
CONTINUOUS
 62
     7
 10
899.828697257103
 20
-661.234871526907
 11
899.705810701114
 21
-660.283377596743
 12
899.828697257103
 22
-660.335159187653
 13
899.828697257103
 23
-660.335159187653
  0
SOLID
  8
MOJI
  6
CONTINUOUS
 62
     7
 10
899.828697257103
 20
-661.234871526907
 11
899.828697257103
 21
-660.335159187653
 12
899.879264368649
 22
-661.116689433964
 13
899.879264368649
 23
-661.116689433964
  0
SOLID
  8
MOJI
  6
CONTINUOUS
 62
     7
 10
899.879264368649
 20
-661.116689433964
 11
899.828697257103
 21
-660.335159187653
 12
899.879264368649
 22
-660.400274937436
 13
899.879264368649
 23
-660.400274937436
  0
SOLID
  8
MOJI
  6
CONTINUOUS
 62
     7
 10
899.879264368649
 20
-661.116689433964
 11
899.879264368649
 21
-660.400274937436
 12
900.023903257538
 22
-660.964705601499
 13
900.023903257538
 23
-660.964705601499
  0
SOLID
  8
MOJI
  6
CONTINUOUS
 62
     7
 10
900.023903257538
 20
-660.964705601499
 11
899.879264368649
 21
-660.400274937436
 12
900.023903257538
 22
-660.660832102511
 13
900.023903257538
 23
-660.660832102511
  0
SOLID
  8
MOJI
  6
CONTINUOUS
 62
     7
 10
900.023903257538
 20
-660.964705601499
 11
900.023903257538
 21
-660.660832102511
 12
900.096222701982
 22
-660.892386157054
 13
900.096222701982
 23
-660.892386157054
  0
SOLID
  8
MOJI
  6
CONTINUOUS
 62
     7
 10
900.096222701982
 20
-660.892386157054
 11
900.023903257538
 21
-660.660832102511
 12
900.096222701982
 22
-660.791110685049
 13
900.096222701982
 23
-660.791110685049
  0
SOLID
  8
MOJI
  6
CONTINUOUS
 62
     7
 10
900.096222701982
 20
-660.892386157054
 11
900.096222701982
 21
-660.791110685049
 12
900.110630091305
 22
-660.877978767731
 13
900.110630091305
 23
-660.877978767731
  0
ENDBLK
  8
0
  0
BLOCK
  8
0
  2
*U54
 70
     1
 10
0.0
 20
0.0
  0
SOLID
  8
MOJI
  6
CONTINUOUS
 62
     7
 10
900.718000425506
 20
-660.498802415148
 11
900.681840703284
 21
-660.458186992558
 12
900.718000425506
 22
-660.371318909875
 13
900.718000425506
 23
-660.371318909875
  0
SOLID
  8
MOJI
  6
CONTINUOUS
 62
     7
 10
900.718000425506
 20
-660.498802415148
 11
900.718000425506
 21
-660.371318909875
 12
900.920268871687
 22
-660.725994935266
 13
900.920268871687
 23
-660.725994935266
  0
SOLID
  8
MOJI
  6
CONTINUOUS
 62
     7
 10
900.920268871687
 20
-660.725994935266
 11
900.718000425506
 21
-660.371318909875
 12
900.920268871687
 22
-660.514301777003
 13
900.920268871687
 23
-660.514301777003
  0
SOLID
  8
MOJI
  6
CONTINUOUS
 62
     7
 10
900.920268871687
 20
-660.725994935266
 11
900.920268871687
 21
-660.514301777003
 12
900.963773537485
 22
-660.781770147828
 13
900.963773537485
 23
-660.781770147828
  0
SOLID
  8
MOJI
  6
CONTINUOUS
 62
     7
 10
900.963773537485
 20
-660.781770147828
 11
900.920268871687
 21
-660.514301777003
 12
900.963773537485
 22
-660.54505507524
 13
900.963773537485
 23
-660.54505507524
  0
SOLID
  8
MOJI
  6
CONTINUOUS
 62
     7
 10
900.963773537485
 20
-660.781770147828
 11
900.963773537485
 21
-660.54505507524
 12
901.151634594343
 22
-661.02261765662
 13
901.151634594343
 23
-661.02261765662
  0
SOLID
  8
MOJI
  6
CONTINUOUS
 62
     7
 10
901.151634594343
 20
-661.02261765662
 11
900.963773537485
 21
-660.54505507524
 12
901.151634594343
 22
-660.716876655703
 13
901.151634594343
 23
-660.716876655703
  0
SOLID
  8
MOJI
  6
CONTINUOUS
 62
     7
 10
901.151634594343
 20
-661.02261765662
 11
901.151634594343
 21
-660.716876655703
 12
901.216891593041
 22
-661.12054866164
 13
901.216891593041
 23
-661.12054866164
  0
SOLID
  8
MOJI
  6
CONTINUOUS
 62
     7
 10
901.216891593041
 20
-661.12054866164
 11
901.151634594343
 21
-660.716876655703
 12
901.216891593041
 22
-660.776562046811
 13
901.216891593041
 23
-660.776562046811
  0
SOLID
  8
MOJI
  6
CONTINUOUS
 62
     7
 10
901.216891593041
 20
-661.12054866164
 11
901.216891593041
 21
-660.776562046811
 12
901.339778149031
 22
-661.304964190572
 13
901.339778149031
 23
-661.304964190572
  0
SOLID
  8
MOJI
  6
CONTINUOUS
 62
     7
 10
901.339778149031
 20
-661.304964190572
 11
901.216891593041
 21
-660.776562046811
 12
901.339778149031
 22
-660.906934795292
 13
901.339778149031
 23
-660.906934795292
  0
SOLID
  8
MOJI
  6
CONTINUOUS
 62
     7
 10
901.339778149031
 20
-661.304964190572
 11
901.339778149031
 21
-660.906934795292
 12
901.354185538353
 22
-661.326585321551
 13
901.354185538353
 23
-661.326585321551
  0
SOLID
  8
MOJI
  6
CONTINUOUS
 62
     7
 10
901.354185538353
 20
-661.326585321551
 11
901.339778149031
 21
-660.906934795292
 12
901.354185538353
 22
-660.924646557947
 13
901.354185538353
 23
-660.924646557947
  0
SOLID
  8
MOJI
  6
CONTINUOUS
 62
     7
 10
901.354185538353
 20
-661.326585321551
 11
901.354185538353
 21
-660.924646557947
 12
901.534984149465
 22
-661.65230531938
 13
901.534984149465
 23
-661.65230531938
  0
SOLID
  8
MOJI
  6
CONTINUOUS
 62
     7
 10
901.534984149465
 20
-661.65230531938
 11
901.354185538353
 21
-660.924646557947
 12
901.534984149465
 22
-661.146911814799
 13
901.534984149465
 23
-661.146911814799
  0
SOLID
  8
MOJI
  6
CONTINUOUS
 62
     7
 10
901.534984149465
 20
-661.65230531938
 11
901.534984149465
 21
-661.146911814799
 12
901.556736482364
 22
-661.681261346941
 13
901.556736482364
 23
-661.681261346941
  0
SOLID
  8
MOJI
  6
CONTINUOUS
 62
     7
 10
901.556736482364
 20
-661.681261346941
 11
901.534984149465
 21
-661.146911814799
 12
901.556736482364
 22
-661.173653103514
 13
901.556736482364
 23
-661.173653103514
  0
SOLID
  8
MOJI
  6
CONTINUOUS
 62
     7
 10
901.556736482364
 20
-661.681261346941
 11
901.556736482364
 21
-661.173653103514
 12
901.592896204586
 22
-661.758079536169
 13
901.592896204586
 23
-661.758079536169
  0
SOLID
  8
MOJI
  6
CONTINUOUS
 62
     7
 10
901.592896204586
 20
-661.758079536169
 11
901.556736482364
 21
-661.173653103514
 12
901.592896204586
 22
-661.218106154884
 13
901.592896204586
 23
-661.218106154884
  0
SOLID
  8
MOJI
  6
CONTINUOUS
 62
     7
 10
901.592896204586
 20
-661.758079536169
 11
901.592896204586
 21
-661.218106154884
 12
901.737252595645
 22
-662.064752150978
 13
901.737252595645
 23
-662.064752150978
  0
SOLID
  8
MOJI
  6
CONTINUOUS
 62
     7
 10
901.737252595645
 20
-662.064752150978
 11
901.592896204586
 21
-661.218106154884
 12
901.737252595645
 22
-661.424660795442
 13
901.737252595645
 23
-661.424660795442
  0
SOLID
  8
MOJI
  6
CONTINUOUS
 62
     7
 10
901.737252595645
 20
-662.064752150978
 11
901.737252595645
 21
-661.424660795442
 12
901.795164650767
 22
-662.224123412044
 13
901.795164650767
 23
-662.224123412044
  0
SOLID
  8
MOJI
  6
CONTINUOUS
 62
     7
 10
901.795164650767
 20
-662.224123412044
 11
901.737252595645
 21
-661.424660795442
 12
901.795164650767
 22
-661.507525181577
 13
901.795164650767
 23
-661.507525181577
  0
SOLID
  8
MOJI
  6
CONTINUOUS
 62
     7
 10
901.795164650767
 20
-662.224123412044
 11
901.795164650767
 21
-661.507525181577
 12
901.838669316565
 22
-662.343846213041
 13
901.838669316565
 23
-662.343846213041
  0
SOLID
  8
MOJI
  6
CONTINUOUS
 62
     7
 10
901.838669316565
 20
-662.343846213041
 11
901.795164650767
 21
-661.507525181577
 12
901.838669316565
 22
-661.594393264259
 13
901.838669316565
 23
-661.594393264259
  0
SOLID
  8
MOJI
  6
CONTINUOUS
 62
     7
 10
901.838669316565
 20
-662.343846213041
 11
901.838669316565
 21
-661.594393264259
 12
901.881891484534
 22
-662.462791593252
 13
901.881891484534
 23
-662.462791593252
  0
SOLID
  8
MOJI
  6
CONTINUOUS
 62
     7
 10
901.881891484534
 20
-662.462791593252
 11
901.838669316565
 21
-661.594393264259
 12
901.881891484534
 22
-661.67326164757
 13
901.881891484534
 23
-661.67326164757
  0
SOLID
  8
MOJI
  6
CONTINUOUS
 62
     7
 10
901.881891484534
 20
-662.462791593252
 11
901.881891484534
 21
-661.67326164757
 12
902.004778040524
 22
-662.875238424849
 13
902.004778040524
 23
-662.875238424849
  0
SOLID
  8
MOJI
  6
CONTINUOUS
 62
     7
 10
902.004778040524
 20
-662.875238424849
 11
901.881891484534
 21
-661.67326164757
 12
902.004778040524
 22
-661.897495286398
 13
902.004778040524
 23
-661.897495286398
  0
SOLID
  8
MOJI
  6
CONTINUOUS
 62
     7
 10
902.004778040524
 20
-662.875238424849
 11
902.004778040524
 21
-661.897495286398
 12
902.040937762746
 22
-662.924950693368
 13
902.040937762746
 23
-662.924950693368
  0
SOLID
  8
MOJI
  6
CONTINUOUS
 62
     7
 10
902.040937762746
 20
-662.924950693368
 11
902.004778040524
 21
-661.897495286398
 12
902.040937762746
 22
-661.963476678972
 13
902.040937762746
 23
-661.963476678972
  0
SOLID
  8
MOJI
  6
CONTINUOUS
 62
     7
 10
902.040937762746
 20
-662.924950693368
 11
902.040937762746
 21
-661.963476678972
 12
902.178514205888
 22
-663.114090339997
 13
902.178514205888
 23
-663.114090339997
  0
SOLID
  8
MOJI
  6
CONTINUOUS
 62
     7
 10
902.178514205888
 20
-663.114090339997
 11
902.040937762746
 21
-661.963476678972
 12
902.178514205888
 22
-662.281851733226
 13
902.178514205888
 23
-662.281851733226
  0
SOLID
  8
MOJI
  6
CONTINUOUS
 62
     7
 10
902.178514205888
 20
-663.114090339997
 11
902.178514205888
 21
-662.281851733226
 12
902.279648428979
 22
-662.890829280929
 13
902.279648428979
 23
-662.890829280929
  0
SOLID
  8
MOJI
  6
CONTINUOUS
 62
     7
 10
902.279648428979
 20
-662.890829280929
 11
902.178514205888
 21
-662.281851733226
 12
902.279648428979
 22
-662.723254592384
 13
902.279648428979
 23
-662.723254592384
  0
SOLID
  8
MOJI
  6
CONTINUOUS
 62
     7
 10
902.279648428979
 20
-662.890829280929
 11
902.279648428979
 21
-662.723254592384
 12
902.286710874725
 22
-662.875238424849
 13
902.286710874725
 23
-662.875238424849
  0
ENDBLK
  8
0
  0
BLOCK
  8
0
  2
*U55
 70
     1
 10
0.0
 20
0.0
  0
SOLID
  8
MOJI
  6
CONTINUOUS
 62
     7
 10
896.755968361704
 20
-661.919972013174
 11
896.755968361704
 21
-661.710217374502
 12
896.770375751027
 22
-662.137071595422
 13
896.770375751027
 23
-662.137071595422
  0
SOLID
  8
MOJI
  6
CONTINUOUS
 62
     7
 10
896.770375751027
 20
-662.137071595422
 11
896.755968361704
 21
-661.710217374502
 12
896.770375751027
 22
-661.276018210005
 13
896.770375751027
 23
-661.276018210005
  0
SOLID
  8
MOJI
  6
CONTINUOUS
 62
     7
 10
896.770375751027
 20
-662.137071595422
 11
896.770375751027
 21
-661.276018210005
 12
896.78478314035
 22
-662.35417117767
 13
896.78478314035
 23
-662.35417117767
  0
SOLID
  8
MOJI
  6
CONTINUOUS
 62
     7
 10
896.78478314035
 20
-662.35417117767
 11
896.770375751027
 21
-661.276018210005
 12
896.78478314035
 22
-661.134610619345
 13
896.78478314035
 23
-661.134610619345
  0
SOLID
  8
MOJI
  6
CONTINUOUS
 62
     7
 10
896.78478314035
 20
-662.35417117767
 11
896.78478314035
 21
-661.134610619345
 12
896.813880416826
 22
-662.568710364952
 13
896.813880416826
 23
-662.568710364952
  0
SOLID
  8
MOJI
  6
CONTINUOUS
 62
     7
 10
896.813880416826
 20
-662.568710364952
 11
896.78478314035
 21
-661.134610619345
 12
896.813880416826
 22
-660.84902274017
 13
896.813880416826
 23
-660.84902274017
  0
SOLID
  8
MOJI
  6
CONTINUOUS
 62
     7
 10
896.813880416826
 20
-662.568710364952
 11
896.813880416826
 21
-660.84902274017
 12
896.842695195472
 22
-662.781166647505
 13
896.842695195472
 23
-662.781166647505
  0
SOLID
  8
MOJI
  6
CONTINUOUS
 62
     7
 10
896.842695195472
 20
-662.781166647505
 11
896.813880416826
 21
-660.84902274017
 12
896.842695195472
 22
-660.662854213789
 13
896.842695195472
 23
-660.662854213789
  0
SOLID
  8
MOJI
  6
CONTINUOUS
 62
     7
 10
896.842695195472
 20
-662.781166647505
 11
896.842695195472
 21
-660.662854213789
 12
896.878854917694
 22
-662.968440669866
 13
896.878854917694
 23
-662.968440669866
  0
SOLID
  8
MOJI
  6
CONTINUOUS
 62
     7
 10
896.878854917694
 20
-662.968440669866
 11
896.842695195472
 21
-660.662854213789
 12
896.878854917694
 22
-660.429230964997
 13
896.878854917694
 23
-660.429230964997
  0
SOLID
  8
MOJI
  6
CONTINUOUS
 62
     7
 10
896.878854917694
 20
-662.968440669866
 11
896.878854917694
 21
-660.429230964997
 12
896.922359583492
 22
-663.193754728018
 13
896.922359583492
 23
-663.193754728018
  0
SOLID
  8
MOJI
  6
CONTINUOUS
 62
     7
 10
896.922359583492
 20
-663.193754728018
 11
896.878854917694
 21
-660.429230964997
 12
896.922359583492
 22
-660.251809702243
 13
896.922359583492
 23
-660.251809702243
  0
SOLID
  8
MOJI
  6
CONTINUOUS
 62
     7
 10
896.922359583492
 20
-663.193754728018
 11
896.922359583492
 21
-660.251809702243
 12
896.979989140784
 22
-663.409040144515
 13
896.979989140784
 23
-663.409040144515
  0
SOLID
  8
MOJI
  6
CONTINUOUS
 62
     7
 10
896.979989140784
 20
-663.409040144515
 11
896.922359583492
 21
-660.251809702243
 12
896.979989140784
 22
-660.016784133399
 13
896.979989140784
 23
-660.016784133399
  0
SOLID
  8
MOJI
  6
CONTINUOUS
 62
     7
 10
896.979989140784
 20
-663.409040144515
 11
896.979989140784
 21
-660.016784133399
 12
897.023493806583
 22
-663.571559527557
 13
897.023493806583
 23
-663.571559527557
  0
SOLID
  8
MOJI
  6
CONTINUOUS
 62
     7
 10
897.023493806583
 20
-663.571559527557
 11
896.979989140784
 21
-660.016784133399
 12
897.023493806583
 22
-659.876192220302
 13
897.023493806583
 23
-659.876192220302
  0
SOLID
  8
MOJI
  6
CONTINUOUS
 62
     7
 10
897.023493806583
 20
-663.571559527557
 11
897.023493806583
 21
-661.710217374502
 12
897.030838750159
 22
-663.598997864953
 13
897.030838750159
 23
-663.598997864953
  0
SOLID
  8
MOJI
  6
CONTINUOUS
 62
     7
 10
897.030838750159
 20
-663.598997864953
 11
897.023493806583
 21
-661.710217374502
 12
897.030838750159
 22
-661.946335707709
 13
897.030838750159
 23
-661.946335707709
  0
SOLID
  8
MOJI
  6
CONTINUOUS
 62
     7
 10
897.023493806583
 20
-661.710217374502
 11
897.023493806583
 21
-659.876192220302
 12
897.030838750159
 22
-661.333789016212
 13
897.030838750159
 23
-661.333789016212
  0
SOLID
  8
MOJI
  6
CONTINUOUS
 62
     7
 10
897.030838750159
 20
-661.333789016212
 11
897.023493806583
 21
-659.876192220302
 12
897.030838750159
 22
-659.852455923286
 13
897.030838750159
 23
-659.852455923286
  0
SOLID
  8
MOJI
  6
CONTINUOUS
 62
     7
 10
897.030838750159
 20
-663.598997864953
 11
897.030838750159
 21
-661.946335707709
 12
897.037901195906
 22
-663.618112077218
 13
897.037901195906
 23
-663.618112077218
  0
SOLID
  8
MOJI
  6
CONTINUOUS
 62
     7
 10
897.037901195906
 20
-663.618112077218
 11
897.030838750159
 21
-661.946335707709
 12
897.037901195906
 22
-662.173372566559
 13
897.037901195906
 23
-662.173372566559
  0
SOLID
  8
MOJI
  6
CONTINUOUS
 62
     7
 10
897.030838750159
 20
-661.333789016212
 11
897.030838750159
 21
-659.852455923286
 12
897.037901195906
 22
-661.24617054867
 13
897.037901195906
 23
-661.24617054867
  0
SOLID
  8
MOJI
  6
CONTINUOUS
 62
     7
 10
897.037901195906
 20
-661.24617054867
 11
897.030838750159
 21
-659.852455923286
 12
897.037901195906
 22
-659.829632560771
 13
897.037901195906
 23
-659.829632560771
  0
SOLID
  8
MOJI
  6
CONTINUOUS
 62
     7
 10
897.037901195906
 20
-663.618112077218
 11
897.037901195906
 21
-662.173372566559
 12
897.066998472381
 22
-663.696862631751
 13
897.066998472381
 23
-663.696862631751
  0
SOLID
  8
MOJI
  6
CONTINUOUS
 62
     7
 10
897.066998472381
 20
-663.696862631751
 11
897.037901195906
 21
-662.173372566559
 12
897.066998472381
 22
-662.528563929789
 13
897.066998472381
 23
-662.528563929789
  0
SOLID
  8
MOJI
  6
CONTINUOUS
 62
     7
 10
897.037901195906
 20
-661.24617054867
 11
897.037901195906
 21
-659.829632560771
 12
897.066998472381
 22
-660.885182462393
 13
897.066998472381
 23
-660.885182462393
  0
SOLID
  8
MOJI
  6
CONTINUOUS
 62
     7
 10
897.066998472381
 20
-660.885182462393
 11
897.037901195906
 21
-659.829632560771
 12
897.066998472381
 22
-659.735600307205
 13
897.066998472381
 23
-659.735600307205
  0
SOLID
  8
MOJI
  6
CONTINUOUS
 62
     7
 10
897.066998472381
 20
-663.696862631751
 11
897.066998472381
 21
-662.528563929789
 12
897.074060918128
 22
-663.715976844015
 13
897.074060918128
 23
-663.715976844015
  0
SOLID
  8
MOJI
  6
CONTINUOUS
 62
     7
 10
897.074060918128
 20
-663.715976844015
 11
897.066998472381
 21
-662.528563929789
 12
897.074060918128
 22
-662.614775425717
 13
897.074060918128
 23
-662.614775425717
  0
SOLID
  8
MOJI
  6
CONTINUOUS
 62
     7
 10
897.066998472381
 20
-660.885182462393
 11
897.066998472381
 21
-659.735600307205
 12
897.074060918128
 22
-660.837986901035
 13
897.074060918128
 23
-660.837986901035
  0
SOLID
  8
MOJI
  6
CONTINUOUS
 62
     7
 10
897.074060918128
 20
-660.837986901035
 11
897.066998472381
 21
-659.735600307205
 12
897.074060918128
 22
-659.71277694469
 13
897.074060918128
 23
-659.71277694469
  0
SOLID
  8
MOJI
  6
CONTINUOUS
 62
     7
 10
897.074060918128
 20
-663.715976844015
 11
897.074060918128
 21
-662.614775425717
 12
897.103158194603
 22
-663.794727398547
 13
897.103158194603
 23
-663.794727398547
  0
SOLID
  8
MOJI
  6
CONTINUOUS
 62
     7
 10
897.103158194603
 20
-663.794727398547
 11
897.074060918128
 21
-662.614775425717
 12
897.103158194603
 22
-662.789472745807
 13
897.103158194603
 23
-662.789472745807
  0
SOLID
  8
MOJI
  6
CONTINUOUS
 62
     7
 10
897.074060918128
 20
-660.837986901035
 11
897.074060918128
 21
-659.71277694469
 12
897.103158194603
 22
-660.643541188238
 13
897.103158194603
 23
-660.643541188238
  0
SOLID
  8
MOJI
  6
CONTINUOUS
 62
     7
 10
897.103158194603
 20
-660.643541188238
 11
897.074060918128
 21
-659.71277694469
 12
897.103158194603
 22
-659.618744691125
 13
897.103158194603
 23
-659.618744691125
  0
SOLID
  8
MOJI
  6
CONTINUOUS
 62
     7
 10
897.103158194603
 20
-663.794727398547
 11
897.103158194603
 21
-662.789472745807
 12
897.131972973249
 22
-663.872713384589
 13
897.131972973249
 23
-663.872713384589
  0
SOLID
  8
MOJI
  6
CONTINUOUS
 62
     7
 10
897.131972973249
 20
-663.872713384589
 11
897.103158194603
 21
-662.789472745807
 12
897.131972973249
 22
-662.962473975411
 13
897.131972973249
 23
-662.962473975411
  0
SOLID
  8
MOJI
  6
CONTINUOUS
 62
     7
 10
897.103158194603
 20
-660.643541188238
 11
897.103158194603
 21
-659.618744691125
 12
897.131972973249
 22
-660.450983297896
 13
897.131972973249
 23
-660.450983297896
  0
SOLID
  8
MOJI
  6
CONTINUOUS
 62
     7
 10
897.131972973249
 20
-660.450983297896
 11
897.103158194603
 21
-659.618744691125
 12
897.131972973249
 22
-659.545876033023
 13
897.131972973249
 23
-659.545876033023
  0
SOLID
  8
MOJI
  6
CONTINUOUS
 62
     7
 10
897.131972973249
 20
-663.872713384589
 11
897.131972973249
 21
-662.962473975411
 12
897.146380362572
 22
-663.91170637761
 13
897.146380362572
 23
-663.91170637761
  0
SOLID
  8
MOJI
  6
CONTINUOUS
 62
     7
 10
897.146380362572
 20
-663.91170637761
 11
897.131972973249
 21
-662.962473975411
 12
897.146380362572
 22
-663.048974590214
 13
897.146380362572
 23
-663.048974590214
  0
SOLID
  8
MOJI
  6
CONTINUOUS
 62
     7
 10
897.131972973249
 20
-660.450983297896
 11
897.131972973249
 21
-659.545876033023
 12
897.146380362572
 22
-660.38124590202
 13
897.146380362572
 23
-660.38124590202
  0
SOLID
  8
MOJI
  6
CONTINUOUS
 62
     7
 10
897.146380362572
 20
-660.38124590202
 11
897.131972973249
 21
-659.545876033023
 12
897.146380362572
 22
-659.509441703971
 13
897.146380362572
 23
-659.509441703971
  0
SOLID
  8
MOJI
  6
CONTINUOUS
 62
     7
 10
897.146380362572
 20
-663.91170637761
 11
897.146380362572
 21
-663.048974590214
 12
897.175195141218
 22
-663.989692363651
 13
897.175195141218
 23
-663.989692363651
  0
SOLID
  8
MOJI
  6
CONTINUOUS
 62
     7
 10
897.175195141218
 20
-663.989692363651
 11
897.146380362572
 21
-663.048974590214
 12
897.175195141218
 22
-663.177559458285
 13
897.175195141218
 23
-663.177559458285
  0
SOLID
  8
MOJI
  6
CONTINUOUS
 62
     7
 10
897.146380362572
 20
-660.38124590202
 11
897.146380362572
 21
-659.509441703971
 12
897.175195141218
 22
-660.241771110269
 13
897.175195141218
 23
-660.241771110269
  0
SOLID
  8
MOJI
  6
CONTINUOUS
 62
     7
 10
897.175195141218
 20
-660.241771110269
 11
897.146380362572
 21
-659.509441703971
 12
897.175195141218
 22
-659.436573045869
 13
897.175195141218
 23
-659.436573045869
  0
SOLID
  8
MOJI
  6
CONTINUOUS
 62
     7
 10
897.175195141218
 20
-663.989692363651
 11
897.175195141218
 21
-663.177559458285
 12
897.218699807017
 22
-664.089996839296
 13
897.218699807017
 23
-664.089996839296
  0
SOLID
  8
MOJI
  6
CONTINUOUS
 62
     7
 10
897.218699807017
 20
-664.089996839296
 11
897.175195141218
 21
-663.177559458285
 12
897.218699807017
 22
-663.371697396353
 13
897.218699807017
 23
-663.371697396353
  0
SOLID
  8
MOJI
  6
CONTINUOUS
 62
     7
 10
897.175195141218
 20
-660.241771110269
 11
897.175195141218
 21
-659.436573045869
 12
897.218699807017
 22
-660.031191522722
 13
897.218699807017
 23
-660.031191522722
  0
SOLID
  8
MOJI
  6
CONTINUOUS
 62
     7
 10
897.218699807017
 20
-660.031191522722
 11
897.175195141218
 21
-659.436573045869
 12
897.218699807017
 22
-659.326555660106
 13
897.218699807017
 23
-659.326555660106
  0
SOLID
  8
MOJI
  6
CONTINUOUS
 62
     7
 10
897.218699807017
 20
-664.089996839296
 11
897.218699807017
 21
-663.371697396353
 12
897.240452139916
 22
-664.140149077118
 13
897.240452139916
 23
-664.140149077118
  0
SOLID
  8
MOJI
  6
CONTINUOUS
 62
     7
 10
897.240452139916
 20
-664.140149077118
 11
897.218699807017
 21
-663.371697396353
 12
897.240452139916
 22
-663.468766365387
 13
897.240452139916
 23
-663.468766365387
  0
SOLID
  8
MOJI
  6
CONTINUOUS
 62
     7
 10
897.218699807017
 20
-660.031191522722
 11
897.218699807017
 21
-659.326555660106
 12
897.240452139916
 22
-659.953542608216
 13
897.240452139916
 23
-659.953542608216
  0
SOLID
  8
MOJI
  6
CONTINUOUS
 62
     7
 10
897.240452139916
 20
-659.953542608216
 11
897.218699807017
 21
-659.326555660106
 12
897.240452139916
 22
-659.271546967225
 13
897.240452139916
 23
-659.271546967225
  0
SOLID
  8
MOJI
  6
CONTINUOUS
 62
     7
 10
897.240452139916
 20
-664.140149077118
 11
897.240452139916
 21
-663.468766365387
 12
897.254859529239
 22
-664.173366793078
 13
897.254859529239
 23
-664.173366793078
  0
SOLID
  8
MOJI
  6
CONTINUOUS
 62
     7
 10
897.254859529239
 20
-664.173366793078
 11
897.240452139916
 21
-663.468766365387
 12
897.254859529239
 22
-663.520196165905
 13
897.254859529239
 23
-663.520196165905
  0
SOLID
  8
MOJI
  6
CONTINUOUS
 62
     7
 10
897.240452139916
 20
-659.953542608216
 11
897.240452139916
 21
-659.271546967225
 12
897.254859529239
 22
-659.902112807699
 13
897.254859529239
 23
-659.902112807699
  0
SOLID
  8
MOJI
  6
CONTINUOUS
 62
     7
 10
897.254859529239
 20
-659.902112807699
 11
897.240452139916
 21
-659.271546967225
 12
897.254859529239
 22
-659.235112638174
 13
897.254859529239
 23
-659.235112638174
  0
SOLID
  8
MOJI
  6
CONTINUOUS
 62
     7
 10
897.254859529239
 20
-664.173366793078
 11
897.254859529239
 21
-663.520196165905
 12
897.33424141943
 22
-664.356389894741
 13
897.33424141943
 23
-664.356389894741
  0
SOLID
  8
MOJI
  6
CONTINUOUS
 62
     7
 10
897.33424141943
 20
-664.356389894741
 11
897.254859529239
 21
-663.520196165905
 12
897.33424141943
 22
-663.803564282479
 13
897.33424141943
 23
-663.803564282479
  0
SOLID
  8
MOJI
  6
CONTINUOUS
 62
     7
 10
897.254859529239
 20
-659.902112807699
 11
897.254859529239
 21
-659.235112638174
 12
897.33424141943
 22
-659.618744691125
 13
897.33424141943
 23
-659.618744691125
  0
SOLID
  8
MOJI
  6
CONTINUOUS
 62
     7
 10
897.33424141943
 20
-659.618744691125
 11
897.254859529239
 21
-659.235112638174
 12
897.33424141943
 22
-659.066736207027
 13
897.33424141943
 23
-659.066736207027
  0
SOLID
  8
MOJI
  6
CONTINUOUS
 62
     7
 10
897.33424141943
 20
-664.356389894741
 11
897.33424141943
 21
-663.803564282479
 12
897.341586363006
 22
-664.373324416603
 13
897.341586363006
 23
-664.373324416603
  0
SOLID
  8
MOJI
  6
CONTINUOUS
 62
     7
 10
897.341586363006
 20
-664.373324416603
 11
897.33424141943
 21
-663.803564282479
 12
897.341586363006
 22
-663.829783396467
 13
897.341586363006
 23
-663.829783396467
  0
SOLID
  8
MOJI
  6
CONTINUOUS
 62
     7
 10
897.33424141943
 20
-659.618744691125
 11
897.33424141943
 21
-659.066736207027
 12
897.341586363006
 22
-659.598531750697
 13
897.341586363006
 23
-659.598531750697
  0
SOLID
  8
MOJI
  6
CONTINUOUS
 62
     7
 10
897.341586363006
 20
-659.598531750697
 11
897.33424141943
 21
-659.066736207027
 12
897.341586363006
 22
-659.051156893113
 13
897.341586363006
 23
-659.051156893113
  0
SOLID
  8
MOJI
  6
CONTINUOUS
 62
     7
 10
897.341586363006
 20
-664.373324416603
 11
897.341586363006
 21
-663.829783396467
 12
897.355993752329
 22
-664.402182525743
 13
897.355993752329
 23
-664.402182525743
  0
SOLID
  8
MOJI
  6
CONTINUOUS
 62
     7
 10
897.355993752329
 20
-664.402182525743
 11
897.341586363006
 21
-663.829783396467
 12
897.355993752329
 22
-663.881213196985
 13
897.355993752329
 23
-663.881213196985
  0
SOLID
  8
MOJI
  6
CONTINUOUS
 62
     7
 10
897.341586363006
 20
-659.598531750697
 11
897.341586363006
 21
-659.051156893113
 12
897.355993752329
 22
-659.558883290627
 13
897.355993752329
 23
-659.558883290627
  0
SOLID
  8
MOJI
  6
CONTINUOUS
 62
     7
 10
897.355993752329
 20
-659.558883290627
 11
897.341586363006
 21
-659.051156893113
 12
897.355993752329
 22
-659.020597469666
 13
897.355993752329
 23
-659.020597469666
  0
SOLID
  8
MOJI
  6
CONTINUOUS
 62
     7
 10
897.355993752329
 20
-664.402182525743
 11
897.355993752329
 21
-663.881213196985
 12
897.43565814035
 22
-664.561750893929
 13
897.43565814035
 23
-664.561750893929
  0
SOLID
  8
MOJI
  6
CONTINUOUS
 62
     7
 10
897.43565814035
 20
-664.561750893929
 11
897.355993752329
 21
-663.881213196985
 12
897.43565814035
 22
-664.086075057258
 13
897.43565814035
 23
-664.086075057258
  0
SOLID
  8
MOJI
  6
CONTINUOUS
 62
     7
 10
897.355993752329
 20
-659.558883290627
 11
897.355993752329
 21
-659.020597469666
 12
897.43565814035
 22
-659.339650629062
 13
897.43565814035
 23
-659.339650629062
  0
SOLID
  8
MOJI
  6
CONTINUOUS
 62
     7
 10
897.43565814035
 20
-659.339650629062
 11
897.355993752329
 21
-659.020597469666
 12
897.43565814035
 22
-658.851621834137
 13
897.43565814035
 23
-658.851621834137
  0
SOLID
  8
MOJI
  6
CONTINUOUS
 62
     7
 10
897.43565814035
 20
-664.561750893929
 11
897.43565814035
 21
-664.086075057258
 12
897.478880308319
 22
-664.648325221349
 13
897.478880308319
 23
-664.648325221349
  0
SOLID
  8
MOJI
  6
CONTINUOUS
 62
     7
 10
897.478880308319
 20
-664.648325221349
 11
897.43565814035
 21
-664.086075057258
 12
897.478880308319
 22
-664.197223513363
 13
897.478880308319
 23
-664.197223513363
  0
SOLID
  8
MOJI
  6
CONTINUOUS
 62
     7
 10
897.43565814035
 20
-659.339650629062
 11
897.43565814035
 21
-658.851621834137
 12
897.478880308319
 22
-659.220705248851
 13
897.478880308319
 23
-659.220705248851
  0
SOLID
  8
MOJI
  6
CONTINUOUS
 62
     7
 10
897.478880308319
 20
-659.220705248851
 11
897.43565814035
 21
-658.851621834137
 12
897.478880308319
 22
-658.77551703299
 13
897.478880308319
 23
-658.77551703299
  0
SOLID
  8
MOJI
  6
CONTINUOUS
 62
     7
 10
897.478880308319
 20
-664.648325221349
 11
897.478880308319
 21
-664.197223513363
 12
897.507977584795
 22
-664.706607284906
 13
897.507977584795
 23
-664.706607284906
  0
SOLID
  8
MOJI
  6
CONTINUOUS
 62
     7
 10
897.507977584795
 20
-664.706607284906
 11
897.478880308319
 21
-664.197223513363
 12
897.507977584795
 22
-664.272048944597
 13
897.507977584795
 23
-664.272048944597
  0
SOLID
  8
MOJI
  6
CONTINUOUS
 62
     7
 10
897.478880308319
 20
-659.220705248851
 11
897.478880308319
 21
-658.77551703299
 12
897.507977584795
 22
-659.153643189741
 13
897.507977584795
 23
-659.153643189741
  0
SOLID
  8
MOJI
  6
CONTINUOUS
 62
     7
 10
897.507977584795
 20
-659.153643189741
 11
897.478880308319
 21
-658.77551703299
 12
897.507977584795
 22
-658.724283081891
 13
897.507977584795
 23
-658.724283081891
  0
SOLID
  8
MOJI
  6
CONTINUOUS
 62
     7
 10
897.507977584795
 20
-664.706607284906
 11
897.507977584795
 21
-664.272048944597
 12
897.529447419864
 22
-664.749611525978
 13
897.529447419864
 23
-664.749611525978
  0
SOLID
  8
MOJI
  6
CONTINUOUS
 62
     7
 10
897.529447419864
 20
-664.749611525978
 11
897.507977584795
 21
-664.272048944597
 12
897.529447419864
 22
-664.319516861709
 13
897.529447419864
 23
-664.319516861709
  0
SOLID
  8
MOJI
  6
CONTINUOUS
 62
     7
 10
897.507977584795
 20
-659.153643189741
 11
897.507977584795
 21
-658.724283081891
 12
897.529447419864
 22
-659.104160505349
 13
897.529447419864
 23
-659.104160505349
  0
SOLID
  8
MOJI
  6
CONTINUOUS
 62
     7
 10
897.529447419864
 20
-659.104160505349
 11
897.507977584795
 21
-658.724283081891
 12
897.529447419864
 22
-658.686479389818
 13
897.529447419864
 23
-658.686479389818
  0
SOLID
  8
MOJI
  6
CONTINUOUS
 62
     7
 10
897.529447419864
 20
-664.749611525978
 11
897.529447419864
 21
-664.319516861709
 12
897.645271530107
 22
-664.936476368826
 13
897.645271530107
 23
-664.936476368826
  0
SOLID
  8
MOJI
  6
CONTINUOUS
 62
     7
 10
897.645271530107
 20
-664.936476368826
 11
897.529447419864
 21
-664.319516861709
 12
897.645271530107
 22
-664.575593782971
 13
897.645271530107
 23
-664.575593782971
  0
SOLID
  8
MOJI
  6
CONTINUOUS
 62
     7
 10
897.529447419864
 20
-659.104160505349
 11
897.529447419864
 21
-658.686479389818
 12
897.645271530107
 22
-658.837214444814
 13
897.645271530107
 23
-658.837214444814
  0
SOLID
  8
MOJI
  6
CONTINUOUS
 62
     7
 10
897.645271530107
 20
-658.837214444814
 11
897.529447419864
 21
-658.686479389818
 12
897.645271530107
 22
-658.482538419424
 13
897.645271530107
 23
-658.482538419424
  0
SOLID
  8
MOJI
  6
CONTINUOUS
 62
     7
 10
897.645271530107
 20
-664.936476368826
 11
897.645271530107
 21
-664.575593782971
 12
897.681431252329
 22
-664.994814661227
 13
897.681431252329
 23
-664.994814661227
  0
SOLID
  8
MOJI
  6
CONTINUOUS
 62
     7
 10
897.681431252329
 20
-664.994814661227
 11
897.645271530107
 21
-664.575593782971
 12
897.681431252329
 22
-664.655539748634
 13
897.681431252329
 23
-664.655539748634
  0
SOLID
  8
MOJI
  6
CONTINUOUS
 62
     7
 10
897.645271530107
 20
-658.837214444814
 11
897.645271530107
 21
-658.482538419424
 12
897.681431252329
 22
-658.767485313322
 13
897.681431252329
 23
-658.767485313322
  0
SOLID
  8
MOJI
  6
CONTINUOUS
 62
     7
 10
897.681431252329
 20
-658.767485313322
 11
897.645271530107
 21
-658.482538419424
 12
897.681431252329
 22
-658.427074678828
 13
897.681431252329
 23
-658.427074678828
  0
SOLID
  8
MOJI
  6
CONTINUOUS
 62
     7
 10
897.681431252329
 20
-664.994814661227
 11
897.681431252329
 21
-664.655539748634
 12
897.753750696774
 22
-665.11149124603
 13
897.753750696774
 23
-665.11149124603
  0
SOLID
  8
MOJI
  6
CONTINUOUS
 62
     7
 10
897.753750696774
 20
-665.11149124603
 11
897.681431252329
 21
-664.655539748634
 12
897.753750696774
 22
-664.793755951515
 13
897.753750696774
 23
-664.793755951515
  0
SOLID
  8
MOJI
  6
CONTINUOUS
 62
     7
 10
897.681431252329
 20
-658.767485313322
 11
897.681431252329
 21
-658.427074678828
 12
897.753750696774
 22
-658.628027050338
 13
897.753750696774
 23
-658.628027050338
  0
SOLID
  8
MOJI
  6
CONTINUOUS
 62
     7
 10
897.753750696774
 20
-658.628027050338
 11
897.681431252329
 21
-658.427074678828
 12
897.753750696774
 22
-658.316147197636
 13
897.753750696774
 23
-658.316147197636
  0
SOLID
  8
MOJI
  6
CONTINUOUS
 62
     7
 10
897.753750696774
 20
-665.11149124603
 11
897.753750696774
 21
-664.793755951515
 12
897.840477530541
 22
-664.959507413564
 13
897.840477530541
 23
-664.959507413564
  0
SOLID
  8
MOJI
  6
CONTINUOUS
 62
     7
 10
897.753750696774
 20
-658.628027050338
 11
897.753750696774
 21
-658.316147197636
 12
897.840477530541
 22
-658.460786086525
 13
897.840477530541
 23
-658.460786086525
  0
ENDBLK
  8
0
  0
BLOCK
  8
0
  2
*X56
 70
     1
 10
0.0
 20
0.0
  0
TEXT
  8
説明文
  6
CONTINUOUS
 10
173.027257465718
 20
-666.424435843449
 40
6.0
  1
● 後付式２重引戸(CN)の断面はC-4参照
  0
TEXT
  8
説明文
  6
CONTINUOUS
 10
173.801451014105
 20
-677.432809176782
 40
6.0
  1
　 フラットバー式2重引戸(CNベース)の断面はC-15参照
  0
TEXT
  8
説明文
  6
CONTINUOUS
 10
173.027257465718
 20
-688.442015876782
 40
6.0
  1
● 後付式2重引戸(BW)の断面はC-5参照
  0
TEXT
  8
説明文
  6
CONTINUOUS
 10
173.801451014105
 20
-699.442889243449
 40
6.0
  1
　 フラットバー式2重引戸(BWベース)の断面はC-22参照
  0
ENDBLK
  8
0
  0
BLOCK
  8
0
  2
*X57
 70
     1
 10
0.0
 20
0.0
  0
SOLID
  8
SUNPOUSEN
 62
     7
 10
579.419356934466
 20
-340.808403886125
 11
581.808417368965
 21
-336.921902858167
 12
580.808982156209
 22
-341.373153160667
 13
580.808982156209
 23
-341.373153160667
  0
LINE
  8
SUNPOUSEN
 62
     7
 10
580.114169545338
 20
-341.090778523396
 11
575.224609226562
 21
-353.122057975169
  0
LINE
  8
SUNPOUSEN
 62
     7
 10
575.224609226562
 20
-353.122057975169
 11
546.504705982529
 21
-353.122057975169
  0
ENDBLK
  8
0
  0
BLOCK
  8
0
  2
*X58
 70
     1
 10
0.0
 20
0.0
  0
SOLID
  8
SUNPOUSEN
 62
     7
 10
261.138612740944
 20
-340.808403886125
 11
263.527673175443
 21
-336.921902858167
 12
262.528237962687
 22
-341.373153160667
 13
262.528237962687
 23
-341.373153160667
  0
LINE
  8
SUNPOUSEN
 62
     7
 10
261.833425351816
 20
-341.090778523396
 11
256.94386503304
 21
-353.122057975169
  0
LINE
  8
SUNPOUSEN
 62
     7
 10
256.94386503304
 20
-353.122057975169
 11
218.769611877509
 21
-353.122057975169
  0
ENDBLK
  8
0
  0
BLOCK
  8
0
  2
*X59
 70
     1
 10
0.0
 20
0.0
  0
TEXT
  8
SAKUZU1
  6
CONTINUOUS
 10
459.773300412608
 20
-580.522189401693
 40
4.83084
  1
W＝DW×2－100＋3
  0
TEXT
  8
SAKUZU1
  6
CONTINUOUS
 10
520.86005138035
 20
-580.522189401693
 40
3.50000155008
  1
　　　
  0
ENDBLK
  8
0
  0
BLOCK
  8
0
  2
*X60
 70
     1
 10
0.0
 20
0.0
  0
TEXT
  8
SAKUZU1
  6
CONTINUOUS
 10
305.211728338744
 20
-626.318324228097
 40
4.83084
  1
2603＋100－3
  0
TEXT
  8
SAKUZU1
  6
CONTINUOUS
 10
305.211728338744
 20
-634.369724228097
 40
4.83084
  1
　　　3
  0
ENDBLK
  8
0
  0
BLOCK
  8
0
  2
*U61
 70
     1
 10
0.0
 20
0.0
  0
SOLID
  8
HATCH
  6
CONTINUOUS
 62
     7
 10
353.123181499909
 20
-237.155207005789
 11
353.123181499909
 21
-236.821615754944
 12
353.226272113185
 22
-237.404089762513
 13
353.226272113185
 23
-237.404089762513
  0
SOLID
  8
HATCH
  6
CONTINUOUS
 62
     7
 10
353.226272113185
 20
-237.404089762513
 11
353.123181499909
 21
-236.821615754944
 12
353.226272113185
 22
-236.821615754944
 13
353.226272113185
 23
-236.821615754944
  0
SOLID
  8
HATCH
  6
CONTINUOUS
 62
     7
 10
353.226272113185
 20
-237.404089762513
 11
353.226272113185
 21
-236.821615754944
 12
353.475154869909
 22
-237.507180375789
 13
353.475154869909
 23
-237.507180375789
  0
SOLID
  8
HATCH
  6
CONTINUOUS
 62
     7
 10
353.475154869909
 20
-237.507180375789
 11
353.226272113185
 21
-236.821615754944
 12
353.475154869909
 22
-236.821615754944
 13
353.475154869909
 23
-236.821615754944
  0
SOLID
  8
HATCH
  6
CONTINUOUS
 62
     7
 10
353.475154869909
 20
-237.507180375789
 11
353.475154869909
 21
-236.821615754944
 12
367.694879017909
 22
-237.507180375789
 13
367.694879017909
 23
-237.507180375789
  0
SOLID
  8
HATCH
  6
CONTINUOUS
 62
     7
 10
367.694879017909
 20
-237.507180375789
 11
353.475154869909
 21
-236.821615754944
 12
367.694879017909
 22
-236.821615754944
 13
367.694879017909
 23
-236.821615754944
  0
SOLID
  8
HATCH
  6
CONTINUOUS
 62
     7
 10
367.694879017909
 20
-237.507180375789
 11
367.694879017909
 21
-236.821615754944
 12
367.943761774633
 22
-237.404089762513
 13
367.943761774633
 23
-237.404089762513
  0
SOLID
  8
HATCH
  6
CONTINUOUS
 62
     7
 10
367.943761774633
 20
-237.404089762513
 11
367.694879017909
 21
-236.821615754944
 12
367.943761774633
 22
-236.821615754944
 13
367.943761774633
 23
-236.821615754944
  0
SOLID
  8
HATCH
  6
CONTINUOUS
 62
     7
 10
367.943761774633
 20
-237.404089762513
 11
367.943761774633
 21
-236.821615754944
 12
368.046852387909
 22
-237.155207005789
 13
368.046852387909
 23
-237.155207005789
  0
SOLID
  8
HATCH
  6
CONTINUOUS
 62
     7
 10
368.046852387909
 20
-237.155207005789
 11
367.943761774633
 21
-236.821615754944
 12
368.046852387909
 22
-236.821615754944
 13
368.046852387909
 23
-236.821615754944
  0
ENDBLK
  8
0
  0
BLOCK
  8
0
  2
*U62
 70
     1
 10
0.0
 20
0.0
  0
SOLID
  8
HATCH
  6
CONTINUOUS
 62
     7
 10
682.508735216787
 20
-237.157791571009
 11
682.508735216787
 21
-236.824200320165
 12
682.611825830063
 22
-237.406674327733
 13
682.611825830063
 23
-237.406674327733
  0
SOLID
  8
HATCH
  6
CONTINUOUS
 62
     7
 10
682.611825830063
 20
-237.406674327733
 11
682.508735216787
 21
-236.824200320165
 12
682.611825830063
 22
-236.824200320165
 13
682.611825830063
 23
-236.824200320165
  0
SOLID
  8
HATCH
  6
CONTINUOUS
 62
     7
 10
682.611825830063
 20
-237.406674327733
 11
682.611825830063
 21
-236.824200320165
 12
682.860708586787
 22
-237.509764941009
 13
682.860708586787
 23
-237.509764941009
  0
SOLID
  8
HATCH
  6
CONTINUOUS
 62
     7
 10
682.860708586787
 20
-237.509764941009
 11
682.611825830063
 21
-236.824200320165
 12
682.860708586787
 22
-236.824200320165
 13
682.860708586787
 23
-236.824200320165
  0
SOLID
  8
HATCH
  6
CONTINUOUS
 62
     7
 10
682.860708586787
 20
-237.509764941009
 11
682.860708586787
 21
-236.824200320165
 12
697.080432734787
 22
-237.509764941009
 13
697.080432734787
 23
-237.509764941009
  0
SOLID
  8
HATCH
  6
CONTINUOUS
 62
     7
 10
697.080432734787
 20
-237.509764941009
 11
682.860708586787
 21
-236.824200320165
 12
697.080432734787
 22
-236.824200320165
 13
697.080432734787
 23
-236.824200320165
  0
SOLID
  8
HATCH
  6
CONTINUOUS
 62
     7
 10
697.080432734787
 20
-237.509764941009
 11
697.080432734787
 21
-236.824200320165
 12
697.329315491511
 22
-237.406674327733
 13
697.329315491511
 23
-237.406674327733
  0
SOLID
  8
HATCH
  6
CONTINUOUS
 62
     7
 10
697.329315491511
 20
-237.406674327733
 11
697.080432734787
 21
-236.824200320165
 12
697.329315491511
 22
-236.824200320165
 13
697.329315491511
 23
-236.824200320165
  0
SOLID
  8
HATCH
  6
CONTINUOUS
 62
     7
 10
697.329315491511
 20
-237.406674327733
 11
697.329315491511
 21
-236.824200320165
 12
697.432406104787
 22
-237.157791571009
 13
697.432406104787
 23
-237.157791571009
  0
SOLID
  8
HATCH
  6
CONTINUOUS
 62
     7
 10
697.432406104787
 20
-237.157791571009
 11
697.329315491511
 21
-236.824200320165
 12
697.432406104787
 22
-236.824200320165
 13
697.432406104787
 23
-236.824200320165
  0
ENDBLK
  8
0
  0
BLOCK
  8
0
  2
*X63
 70
     1
 10
0.0
 20
0.0
  0
TEXT
  8
説明文
  6
CONTINUOUS
 10
507.492907248902
 20
-674.300652453576
 40
5.5
  1
タップ：M8×P1.25
  0
TEXT
  8
説明文
  6
CONTINUOUS
 10
507.847745958579
 20
-683.467319120242
 40
5.5
  1
(ガラス又はサッシ工事)
  0
ENDBLK
  8
0
  0
ENDSEC
  0
SECTION
  2
ENTITIES
  0
LINE
  8
HASEN
 62
     7
 10
275.799691270418
 20
-384.964978280638
 11
275.799691270418
 21
-240.37189833329
  0
LINE
  8
SAKUZU1
 62
     7
 10
272.444941270418
 20
-383.623078280638
 11
272.444941270418
 21
-240.37189833329
  0
LINE
  8
SAKUZU3
 62
     7
 10
214.407766270418
 20
-204.87864333329
 11
391.739851270418
 21
-204.87864333329
  0
LINE
  8
SAKUZU1
 62
     7
 10
272.444941270418
 20
-483.505242711823
 11
272.444941270418
 21
-481.626582711823
  0
LINE
  8
SAKUZU3
 62
     7
 10
214.407766270418
 20
-384.964978280638
 11
214.407766270418
 21
-202.64460427079
  0
LINE
  8
SAKUZU1
 62
     7
 10
272.444941270418
 20
-247.030306898512
 11
391.270186270418
 21
-247.030306898512
  0
LINE
  8
SAKUZU1
 62
     7
 10
272.444941270418
 20
-383.623078280638
 11
391.270186270418
 21
-383.623078280638
  0
LINE
  8
SAKUZU1
 62
     7
 10
214.407766270418
 20
-377.584528280638
 11
272.444941270418
 21
-377.584528280638
  0
LINE
  8
SAKUZU1
 62
     7
 10
214.407766270418
 20
-378.926428280638
 11
272.444941270418
 21
-378.926428280638
  0
LINE
  8
SAKUZU1
 62
     7
 10
334.541363770418
 20
-241.71379833329
 11
391.270186270418
 21
-241.71379833329
  0
LINE
  8
SAKUZU3
 62
     7
 10
212.173727207918
 20
-384.964978280638
 11
393.973890332918
 21
-384.964978280638
  0
LINE
  8
SAKUZU1
 62
     7
 10
334.541363770418
 20
-241.71379833329
 11
214.407766270418
 21
-241.71379833329
  0
LINE
  8
SAKUZU2
 62
     7
 10
241.974078046622
 20
-208.087050509545
 11
235.955522585374
 21
-224.249837379899
  0
LINE
  8
SAKUZU2
 62
     7
 10
248.675690018977
 20
-285.997277473423
 11
237.653713865923
 21
-312.514943002061
  0
TEXT
  8
SUNPOUSEN
  6
CONTINUOUS
 62
     7
 10
237.555541270418
 20
-411.00254613273
 40
5.032125
  1
FIX
  0
TEXT
  8
SUNPOUSEN
  6
CONTINUOUS
 62
     7
 10
331.991753770418
 20
-411.425516182411
 40
5.032125
  1
W
  0
TEXT
  8
SUNPOUSEN
  6
CONTINUOUS
 62
     7
 10
303.58007023553
 20
-422.716736448491
 40
5.032125
  1
W
  0
TEXT
  8
SUNPOUSEN
  6
CONTINUOUS
 62
     7
 10
438.501431640895
 20
-322.219476135281
 40
5.032125
  1
DH=H
 50
90.0
  0
TEXT
  8
SUNPOUSEN
  6
CONTINUOUS
 62
     7
 10
450.849813515403
 20
-322.12788783069
 40
5.032125
  1
H=DH
 50
90.0
  0
TEXT
  8
SUNPOUSEN
  6
CONTINUOUS
 62
     7
 10
461.882882129662
 20
-316.12642180664
 40
5.032125
  1
H
 50
90.0
  0
TEXT
  8
SAKUZU1
 62
     7
 10
289.203819099846
 20
-189.035222813087
 40
8.4
  1
片引　内観姿図
  0
POLYLINE
  8
SUNPOUSEN
 62
     7
 66
     1
  0
VERTEX
  8
SUNPOUSEN
 62
     7
 10
287.848866426649
 20
-298.507979764093
  0
VERTEX
  8
SUNPOUSEN
 62
     7
 10
287.848866426649
 20
-300.80240611029
  0
SEQEND
  8
SUNPOUSEN
 62
     7
  0
LINE
  8
SUNPOUSEN
 62
     7
 10
282.558526761424
 20
-304.771408542946
 11
287.84886642665
 21
-298.507979764093
  0
POLYLINE
  8
SUNPOUSEN
 62
     7
 66
     1
  0
VERTEX
  8
SUNPOUSEN
 62
     7
 10
287.848866426649
 20
-311.0348373218
  0
VERTEX
  8
SUNPOUSEN
 62
     7
 10
287.848866426649
 20
-308.69277811029
  0
SEQEND
  8
SUNPOUSEN
 62
     7
  0
LINE
  8
SUNPOUSEN
 62
     7
 10
282.558526761424
 20
-304.771408542946
 11
287.84886642665
 21
-311.0348373218
  0
LINE
  8
SUNPOUSEN
 62
     7
 10
287.84886642665
 20
-300.80240611029
 11
292.900897035791
 21
-300.80240611029
  0
LINE
  8
SUNPOUSEN
 62
     7
 10
287.84886642665
 20
-308.69277811029
 11
292.900897035791
 21
-308.69277811029
  0
LINE
  8
SUNPOUSEN
 62
     7
 10
292.900897035791
 20
-300.80240611029
 11
292.900897035791
 21
-308.69277811029
  0
LINE
  8
SUNPOUSEN
 62
     7
 10
342.962181191799
 20
-305.02215742321
 11
348.252520857025
 21
-298.758728644355
  0
LINE
  8
SUNPOUSEN
 62
     7
 10
342.962181191799
 20
-305.02215742321
 11
348.252520857025
 21
-311.285586202064
  0
LINE
  8
SUNPOUSEN
 62
     7
 10
348.252520857025
 20
-301.053154990554
 11
353.304551466166
 21
-301.053154990554
  0
LINE
  8
SUNPOUSEN
 62
     7
 10
348.252520857025
 20
-308.943526990553
 11
353.304551466166
 21
-308.943526990553
  0
LINE
  8
SUNPOUSEN
 62
     7
 10
353.304551466166
 20
-301.053154990554
 11
353.304551466166
 21
-308.943526990553
  0
POLYLINE
  8
SUNPOUSEN
 62
     7
 66
     1
  0
VERTEX
  8
SUNPOUSEN
 62
     7
 10
348.252520857025
 20
-311.285586202063
  0
VERTEX
  8
SUNPOUSEN
 62
     7
 10
348.252520857025
 20
-308.943526990553
  0
SEQEND
  8
SUNPOUSEN
 62
     7
  0
POLYLINE
  8
SUNPOUSEN
 62
     7
 66
     1
  0
VERTEX
  8
SUNPOUSEN
 62
     7
 10
348.252520857025
 20
-298.758728644356
  0
VERTEX
  8
SUNPOUSEN
 62
     7
 10
348.252520857025
 20
-301.053154990553
  0
SEQEND
  8
SUNPOUSEN
 62
     7
  0
LINE
  8
SAKUZU1
 62
     7
 10
390.532141270418
 20
-384.964978280638
 11
390.532141270418
 21
-383.623078280638
  0
LINE
  8
SAKUZU1
 62
     7
 10
386.506441270418
 20
-384.964978280638
 11
386.506441270418
 21
-383.623078280638
  0
LINE
  8
SAKUZU1
 62
     7
 10
327.966053770418
 20
-384.964978280638
 11
327.966053770418
 21
-383.623078280638
  0
LINE
  8
SAKUZU1
 62
     7
 10
323.940353770418
 20
-384.964978280638
 11
323.940353770418
 21
-383.623078280638
  0
LINE
  8
SAKUZU1
 62
     7
 10
278.588017418732
 20
-384.964978280638
 11
278.588017418732
 21
-383.623078280638
  0
LINE
  8
SAKUZU1
 62
     7
 10
274.562317418732
 20
-384.964978280638
 11
274.562317418732
 21
-383.623078280638
  0
LINE
  8
SAKUZU1
 62
     7
 10
275.799691270418
 20
-481.291107711823
 11
275.799691270418
 21
-479.412447711823
  0
LINE
  8
SAKUZU2
 62
     7
 10
333.769771270418
 20
-483.505242711823
 11
333.769771270418
 21
-481.291107711823
  0
LINE
  8
SAKUZU3
 62
     7
 10
391.739851270418
 20
-384.964978280638
 11
391.739851270418
 21
-202.64460427079
  0
LINE
  8
HASEN
 62
     7
 10
272.444941270418
 20
-240.37189833329
 11
391.739851270418
 21
-240.37189833329
  0
LINE
  8
SAKUZU1
 62
     7
 10
689.82500046394
 20
-225.342618333289
 11
545.10108546394
 21
-225.342618333289
  0
LINE
  8
SAKUZU1
 62
     7
 10
391.270186270418
 20
-383.623078280638
 11
391.270186270418
 21
-240.37189833329
  0
LINE
  8
SAKUZU1
 62
     7
 10
333.022544150193
 20
-384.964978280638
 11
333.022544150193
 21
-383.623078280638
  0
LINE
  8
SAKUZU1
 62
     7
 10
337.048244150193
 20
-384.964978280638
 11
337.048244150193
 21
-383.623078280638
  0
LINE
  8
SUNPOUSEN
 62
     7
 10
214.407766270418
 20
-387.382604304354
 11
214.407766270418
 21
-414.909403702952
  0
LINE
  8
SUNPOUSEN
 62
     7
 10
275.799691270418
 20
-388.990678280638
 11
275.799691270418
 21
-415.284492378324
  0
LINE
  8
SUNPOUSEN
 62
     7
 10
219.439891270418
 20
-412.768429878324
 11
270.767566270418
 21
-412.768429878324
  0
SOLID
  8
SUNPOUSEN
 62
     7
 10
219.439891270418
 20
-411.929742378324
 11
219.439891270418
 21
-413.607117378324
 12
214.407766270418
 22
-412.768429878324
 13
214.407766270418
 23
-412.768429878324
  0
SOLID
  8
SUNPOUSEN
 62
     7
 10
270.767566270418
 20
-411.929742378324
 11
270.767566270418
 21
-413.607117378324
 12
275.799691270418
 22
-412.768429878324
 13
275.799691270418
 23
-412.768429878324
  0
LINE
  8
SUNPOUSEN
 62
     7
 10
275.799691270418
 20
-415.150302378324
 11
275.799691270418
 21
-412.694631008279
  0
LINE
  8
SUNPOUSEN
 62
     7
 10
391.941136270418
 20
-387.382604304354
 11
391.941136270418
 21
-415.043593702952
  0
LINE
  8
SUNPOUSEN
 62
     7
 10
275.967428770418
 20
-412.778499758279
 11
391.941136270418
 21
-412.778499758279
  0
SOLID
  8
SUNPOUSEN
 62
     7
 10
270.767566270418
 20
-411.929742378324
 11
270.767566270418
 21
-413.607117378324
 12
275.799691270418
 22
-412.768429878324
 13
275.799691270418
 23
-412.768429878324
  0
SOLID
  8
SUNPOUSEN
 62
     7
 10
270.767566270418
 20
-411.929742378324
 11
270.767566270418
 21
-413.607117378324
 12
275.799691270418
 22
-412.768429878324
 13
275.799691270418
 23
-412.768429878324
  0
LINE
  8
SUNPOUSEN
 62
     7
 10
275.799691270418
 20
-387.382604304354
 11
275.799691270418
 21
-415.284492378324
  0
SOLID
  8
SUNPOUSEN
 62
     7
 10
280.831816270418
 20
-411.929742378324
 11
280.831816270418
 21
-413.607117378324
 12
275.799691270418
 22
-412.768429878324
 13
275.799691270418
 23
-412.768429878324
  0
SOLID
  8
SUNPOUSEN
 62
     7
 10
386.909011270418
 20
-411.939812258279
 11
386.909011270418
 21
-413.617187258279
 12
391.941136270418
 22
-412.778499758279
 13
391.941136270418
 23
-412.778499758279
  0
LINE
  8
SUNPOUSEN
 62
     7
 10
214.407766270418
 20
-415.043593702952
 11
214.407766270418
 21
-426.787935758278
  0
LINE
  8
SUNPOUSEN
 62
     7
 10
391.941136270418
 20
-415.043593702952
 11
391.941136270418
 21
-426.787935758278
  0
LINE
  8
SUNPOUSEN
 62
     7
 10
214.407766270418
 20
-424.707990758278
 11
391.941136270418
 21
-424.707990758278
  0
LINE
  8
SUNPOUSEN
 62
     7
 10
386.909011270418
 20
-424.707990758278
 11
381.876886270418
 21
-424.707990758278
  0
LINE
  8
SUNPOUSEN
 62
     7
 10
395.759288788842
 20
-240.37189833329
 11
442.346736270418
 21
-240.37189833329
  0
LINE
  8
SUNPOUSEN
 62
     7
 10
440.333886270418
 20
-379.261903280637
 11
440.333886270418
 21
-245.40402333329
  0
SOLID
  8
SUNPOUSEN
 62
     7
 10
439.495198770418
 20
-378.590953280637
 11
441.172573770418
 21
-378.590953280637
 12
440.333886270418
 22
-383.623078280637
 13
440.333886270418
 23
-383.623078280637
  0
SOLID
  8
SUNPOUSEN
 62
     7
 10
439.495198770418
 20
-245.40402333329
 11
441.172573770418
 21
-245.40402333329
 12
440.333886270418
 22
-240.37189833329
 13
440.333886270418
 23
-240.37189833329
  0
LINE
  8
SUNPOUSEN
 62
     7
 10
395.759288788842
 20
-384.964978280638
 11
466.114419114606
 21
-384.964978280638
  0
LINE
  8
SUNPOUSEN
 62
     7
 10
395.759288788842
 20
-383.623078280637
 11
442.346736270418
 21
-383.623078280637
  0
LINE
  8
SUNPOUSEN
 62
     7
 10
440.333886270418
 20
-389.997103280638
 11
440.333886270418
 21
-398.301591724542
  0
LINE
  8
SUNPOUSEN
 62
     7
 10
440.333886270418
 20
-379.261903280637
 11
440.333886270418
 21
-374.229778280637
  0
LINE
  8
SUNPOUSEN
 62
     7
 10
440.333886270418
 20
-384.964978280638
 11
440.333886270418
 21
-383.623078280637
  0
SOLID
  8
SUNPOUSEN
 62
     7
 10
439.495198770418
 20
-389.997103280638
 11
441.172573770418
 21
-389.997103280638
 12
440.333886270418
 22
-384.964978280638
 13
440.333886270418
 23
-384.964978280638
  0
SOLID
  8
SUNPOUSEN
 62
     7
 10
439.495198770418
 20
-378.590953280637
 11
441.172573770418
 21
-378.590953280637
 12
440.333886270418
 22
-383.623078280637
 13
440.333886270418
 23
-383.623078280637
  0
TEXT
  8
SUNPOUSEN
  6
CONTINUOUS
 62
     7
 10
437.868181876943
 20
-396.746734102543
 40
5.032125
  1
10
 50
90.0
  0
LINE
  8
SUNPOUSEN
 62
     7
 10
452.266011114605
 20
-220.31049333329
 11
452.266011114605
 21
-209.91076833329
  0
SOLID
  8
SUNPOUSEN
 62
     7
 10
451.427323614605
 20
-220.31049333329
 11
453.104698614605
 21
-220.31049333329
 12
452.266011114605
 22
-225.34261833329
 13
452.266011114605
 23
-225.34261833329
  0
SOLID
  8
SUNPOUSEN
 62
     7
 10
451.427323614605
 20
-209.91076833329
 11
453.104698614605
 21
-209.91076833329
 12
452.266011114605
 22
-204.87864333329
 13
452.266011114605
 23
-204.87864333329
  0
LINE
  8
SUNPOUSEN
 62
     7
 10
395.718307456163
 20
-225.34261833329
 11
453.701661666035
 21
-225.34261833329
  0
LINE
  8
SUNPOUSEN
 62
     7
 10
452.266011114605
 20
-236.68167333329
 11
452.266011114605
 21
-230.37474333329
  0
SOLID
  8
SUNPOUSEN
 62
     7
 10
451.427323614605
 20
-236.68167333329
 11
453.104698614605
 21
-236.68167333329
 12
452.266011114605
 22
-241.71379833329
 13
452.266011114605
 23
-241.71379833329
  0
SOLID
  8
SUNPOUSEN
 62
     7
 10
451.427323614605
 20
-230.37474333329
 11
453.104698614605
 21
-230.37474333329
 12
452.266011114605
 22
-225.34261833329
 13
452.266011114605
 23
-225.34261833329
  0
LINE
  8
SUNPOUSEN
 62
     7
 10
395.759288788842
 20
-241.71379833329
 11
454.278861114606
 21
-241.71379833329
  0
LINE
  8
SUNPOUSEN
 62
     7
 10
452.266011114605
 20
-379.932853280638
 11
452.266011114605
 21
-246.74592333329
  0
SOLID
  8
SUNPOUSEN
 62
     7
 10
451.427323614605
 20
-379.932853280638
 11
453.104698614605
 21
-379.932853280638
 12
452.266011114605
 22
-384.964978280638
 13
452.266011114605
 23
-384.964978280638
  0
SOLID
  8
SUNPOUSEN
 62
     7
 10
451.427323614605
 20
-246.74592333329
 11
453.104698614605
 21
-246.74592333329
 12
452.266011114605
 22
-241.71379833329
 13
452.266011114605
 23
-241.71379833329
  0
LINE
  8
SUNPOUSEN
 62
     7
 10
464.101569114606
 20
-209.91076833329
 11
464.101569114606
 21
-214.94289333329
  0
LINE
  8
SUNPOUSEN
 62
     7
 10
396.268505444408
 20
-204.87864333329
 11
466.114419114606
 21
-204.87864333329
  0
LINE
  8
SUNPOUSEN
 62
     7
 10
464.101569114606
 20
-384.964978280638
 11
464.101569114606
 21
-204.87864333329
  0
LINE
  8
SUNPOUSEN
 62
     7
 10
214.407766270418
 20
-424.541440706358
 11
214.407766270418
 21
-424.520943637649
  0
LINE
  8
SUNPOUSEN
 62
     7
 10
391.941136270418
 20
-424.644619076987
 11
391.941136270418
 21
-424.624122008278
  0
LINE
  8
SUNPOUSEN
 62
     7
 10
386.506441270418
 20
-329.871954454847
 11
381.474316270418
 21
-329.871954454847
  0
LINE
  8
SUNPOUSEN
 62
     7
 10
396.771976270418
 20
-329.871954454847
 11
401.564269693427
 21
-329.871954454847
  0
TEXT
  8
SUNPOUSEN
  6
CONTINUOUS
 62
     7
 10
397.412366467941
 20
-328.186141887624
 40
5.032125
  1
3
  0
LINE
  8
SUNPOUSEN
 62
     7
 10
391.538566270418
 20
-329.871954454847
 11
391.739851270418
 21
-329.871954454847
  0
LINE
  8
SUNPOUSEN
 62
     7
 10
391.270186270418
 20
-329.871954454847
 11
391.739851270418
 21
-329.871954454847
  0
SOLID
  8
SUNPOUSEN
 62
     7
 10
386.238061270418
 20
-329.033266954847
 11
386.238061270418
 21
-330.710641954847
 12
391.270186270418
 22
-329.871954454847
 13
391.270186270418
 23
-329.871954454847
  0
SOLID
  8
SUNPOUSEN
 62
     7
 10
396.771976270418
 20
-329.033266954847
 11
396.771976270418
 21
-330.710641954847
 12
391.739851270418
 22
-329.871954454847
 13
391.739851270418
 23
-329.871954454847
  0
LINE
  8
SUNPOUSEN
 62
     7
 10
330.415021270418
 20
-329.871954454847
 11
383.352976270418
 21
-329.871954454847
  0
LINE
  8
SUNPOUSEN
 62
     7
 10
277.487319383951
 20
-346.049878280637
 11
328.746758477569
 21
-346.049878280637
  0
SOLID
  8
SUNPOUSEN
 62
     7
 10
277.487319383951
 20
-345.211190780637
 11
277.487319383951
 21
-346.888565780637
 12
272.455194383951
 22
-346.049878280637
 13
272.455194383951
 23
-346.049878280637
  0
SOLID
  8
SUNPOUSEN
 62
     7
 10
328.746758477569
 20
-345.211190780637
 11
328.746758477569
 21
-346.888565780637
 12
333.778883477569
 22
-346.049878280637
 13
333.778883477569
 23
-346.049878280637
  0
TEXT
  8
SUNPOUSEN
  6
CONTINUOUS
 62
     7
 10
354.589164719129
 20
-327.934059526627
 40
5.032125
  1
DW
  0
TEXT
  8
SUNPOUSEN
  6
CONTINUOUS
 62
     7
 10
297.550920487945
 20
-344.526148738024
 40
5.032125
  1
DW
  0
LINE
  8
SUNPOUSEN
 62
     7
 10
338.801896270418
 20
-362.218760209656
 11
343.834021270418
 21
-362.218760209656
  0
LINE
  8
SUNPOUSEN
 62
     7
 10
325.382896270418
 20
-362.218760209656
 11
316.603342466806
 21
-362.218760209656
  0
LINE
  8
SUNPOUSEN
 62
     7
 10
333.769771270418
 20
-362.218760209656
 11
330.415021270418
 21
-362.218760209656
  0
SOLID
  8
SUNPOUSEN
 62
     7
 10
338.801896270418
 20
-361.380072709656
 11
338.801896270418
 21
-363.057447709656
 12
333.769771270418
 22
-362.218760209656
 13
333.769771270418
 23
-362.218760209656
  0
SOLID
  8
SUNPOUSEN
 62
     7
 10
325.382896270418
 20
-361.380072709656
 11
325.382896270418
 21
-363.057447709656
 12
330.415021270418
 22
-362.218760209656
 13
330.415021270418
 23
-362.218760209656
  0
TEXT
  8
SUNPOUSEN
  6
CONTINUOUS
 62
     7
 10
318.413116215753
 20
-359.471517426844
 40
5.032125
  1
50
  0
LINE
  8
SUNPOUSEN
 62
     7
 10
280.831816270418
 20
-362.218760209656
 11
285.863941270418
 21
-362.218760209656
  0
LINE
  8
SUNPOUSEN
 62
     7
 10
267.412816270418
 20
-362.218760209656
 11
258.663705996438
 21
-362.218760209656
  0
LINE
  8
SUNPOUSEN
 62
     7
 10
275.799691270418
 20
-362.218760209656
 11
272.444941270418
 21
-362.218760209656
  0
SOLID
  8
SUNPOUSEN
 62
     7
 10
280.831816270418
 20
-361.380072709656
 11
280.831816270418
 21
-363.057447709656
 12
275.799691270418
 22
-362.218760209656
 13
275.799691270418
 23
-362.218760209656
  0
SOLID
  8
SUNPOUSEN
 62
     7
 10
267.412816270418
 20
-361.380072709656
 11
267.412816270418
 21
-363.057447709656
 12
272.444941270418
 22
-362.218760209656
 13
272.444941270418
 23
-362.218760209656
  0
TEXT
  8
SUNPOUSEN
  6
CONTINUOUS
 62
     7
 10
260.912416449986
 20
-359.690822356032
 40
5.032125
  1
50
  0
LINE
  8
SAKUZU2
 62
     7
 10
212.394916270418
 20
-486.054852711823
 11
391.941136270418
 21
-486.054852711823
  0
LINE
  8
SAKUZU2
 62
     7
 10
330.815021270418
 20
-485.719377711823
 11
391.941136270418
 21
-485.719377711823
  0
LINE
  8
HASEN
 62
     7
 10
333.769771270418
 20
-384.964978280638
 11
333.769771270418
 21
-240.37189833329
  0
LINE
  8
SAKUZU2
 62
     7
 10
330.815021270418
 20
-483.840717711823
 11
391.941136270418
 21
-483.840717711823
  0
LINE
  8
SAKUZU2
 62
     7
 10
272.444941270418
 20
-481.626582711823
 11
333.369771270418
 21
-481.626582711823
  0
LINE
  8
SAKUZU1
 62
     7
 10
330.815021270418
 20
-483.840717711823
 11
330.815021270418
 21
-485.719377711823
  0
LINE
  8
SAKUZU2
 62
     7
 10
214.407766270418
 20
-481.291107711823
 11
333.769771270418
 21
-481.291107711823
  0
LINE
  8
SAKUZU2
 62
     7
 10
272.444941270418
 20
-483.505242711823
 11
333.369771270418
 21
-483.505242711823
  0
LINE
  8
SAKUZU2
 62
     7
 10
212.394916270418
 20
-479.412447711823
 11
275.799691270418
 21
-479.412447711823
  0
CIRCLE
  8
SUNPOUSEN
 62
     7
 10
459.225751527707
 20
-314.441266619046
 40
3.902828186823629
  0
LINE
  8
SUNPOUSEN
 62
     7
 10
275.967428770418
 20
-424.707990758278
 11
386.909011270418
 21
-424.707990758278
  0
CIRCLE
  8
SUNPOUSEN
 62
     7
 10
306.171167399751
 20
-419.581631092277
 40
3.902828186823629
  0
LINE
  8
SAKUZU1
 62
     7
 10
214.407766270418
 20
-480.351777711823
 11
272.444941270418
 21
-480.351777711823
  0
LINE
  8
SAKUZU2
 62
     7
 10
210.43427365361
 20
-477.980932401383
 11
206.548926293448
 21
-483.655724618782
  0
LINE
  8
SAKUZU2
 62
     7
 10
210.382066270418
 20
-482.82214429523
 11
206.60156194716
 21
-488.343806716315
  0
LINE
  8
SAKUZU2
 62
     7
 10
210.381639066995
 20
-487.644828411709
 11
205.496223890176
 21
-494.739708380025
  0
LINE
  8
SAKUZU2
 62
     7
 10
399.898461033851
 20
-458.430215283016
 11
394.960411270418
 21
-465.642545036075
  0
LINE
  8
SAKUZU2
 62
     7
 10
399.845826447237
 20
-467.123003337603
 11
394.960411270418
 21
-474.217883305919
  0
LINE
  8
SAKUZU2
 62
     7
 10
399.951096687564
 20
-462.395920018153
 11
394.960411270418
 21
-469.685127427276
  0
LINE
  8
SAKUZU3
 62
     7
 10
288.49350079357
 20
-463.125770876407
 11
324.263492065681
 21
-463.125770876407
  0
LINE
  8
SAKUZU3
 62
     7
 10
324.263492065681
 20
-463.125770876407
 11
324.263492065681
 21
-450.77809626543
  0
LINE
  8
SAKUZU3
 62
     7
 10
324.263492065681
 20
-450.77809626543
 11
288.49350079357
 21
-450.77809626543
  0
LINE
  8
SAKUZU3
 62
     7
 10
288.49350079357
 20
-450.77809626543
 11
288.49350079357
 21
-463.125770876407
  0
LINE
  8
SAKUZU3
 62
     7
 10
324.263492065681
 20
-503.856387695803
 11
288.49350079357
 21
-503.856387695803
  0
LINE
  8
SAKUZU3
 62
     7
 10
288.49350079357
 20
-516.204062306781
 11
324.263492065681
 21
-516.204062306781
  0
LINE
  8
SAKUZU3
 62
     7
 10
288.49350079357
 20
-503.856387695803
 11
288.49350079357
 21
-516.204062306781
  0
LINE
  8
SAKUZU3
 62
     7
 10
324.263492065681
 20
-516.204062306781
 11
324.263492065681
 21
-503.856387695803
  0
LINE
  8
SAKUZU3
 62
     7
 10
542.86704640144
 20
-384.964978280636
 11
836.58166952644
 21
-384.964978280636
  0
LINE
  8
SAKUZU1
 62
     7
 10
594.08043546394
 20
-204.878643333289
 11
594.08043546394
 21
-225.342618333289
  0
LINE
  8
SAKUZU1
 62
     7
 10
590.72568546394
 20
-204.878643333289
 11
590.72568546394
 21
-225.342618333289
  0
LINE
  8
HASEN
 62
     7
 10
641.85207546394
 20
-240.375253280636
 11
641.85207546394
 21
-384.964978280636
  0
LINE
  8
SAKUZU1
 62
     7
 10
638.49732546394
 20
-240.375253280636
 11
638.49732546394
 21
-383.623078280636
  0
LINE
  8
SAKUZU1
 62
     7
 10
689.62371546394
 20
-240.375253280636
 11
689.62371546394
 21
-383.623078280636
  0
LINE
  8
SAKUZU1
 62
     7
 10
689.82500046394
 20
-241.113298280636
 11
689.82500046394
 21
-383.623078280636
  0
LINE
  8
SAKUZU1
 62
     7
 10
590.72568546394
 20
-383.623078280636
 11
788.72303046394
 21
-383.623078280636
  0
LINE
  8
SAKUZU1
 62
     7
 10
545.10108546394
 20
-377.584528280635
 11
590.72568546394
 21
-377.584528280635
  0
LINE
  8
SAKUZU3
 62
     7
 10
545.10108546394
 20
-204.878643333289
 11
834.34763046394
 21
-204.878643333289
  0
LINE
  8
SAKUZU1
 62
     7
 10
391.739851270418
 20
-225.34261833329
 11
214.407766270418
 21
-225.34261833329
  0
LINE
  8
HASEN
 62
     7
 10
590.72568546394
 20
-240.375253280636
 11
689.62371546394
 21
-240.375253280636
  0
LINE
  8
SAKUZU1
 62
     7
 10
590.72568546394
 20
-247.030306898511
 11
689.62371546394
 21
-247.030306898511
  0
LINE
  8
HASEN
 62
     7
 10
594.08043546394
 20
-240.375253280636
 11
594.08043546394
 21
-384.964978280636
  0
LINE
  8
SAKUZU1
 62
     7
 10
590.72568546394
 20
-240.375253280636
 11
590.72568546394
 21
-383.623078280636
  0
LINE
  8
SAKUZU1
 62
     7
 10
545.10108546394
 20
-241.716382898511
 11
689.62371546394
 21
-241.71638289851
  0
LINE
  8
SAKUZU1
 62
     7
 10
545.10108546394
 20
-378.926428280636
 11
590.72568546394
 21
-378.926428280636
  0
LINE
  8
SAKUZU1
 62
     7
 10
641.034827382077
 20
-383.623078280636
 11
641.034827382077
 21
-384.964978280636
  0
LINE
  8
SAKUZU1
 62
     7
 10
645.060527382077
 20
-383.623078280636
 11
645.060527382077
 21
-384.964978280636
  0
LINE
  8
SAKUZU1
 62
     7
 10
635.81352546394
 20
-383.623078280636
 11
635.81352546394
 21
-384.964978280636
  0
LINE
  8
SAKUZU1
 62
     7
 10
631.78782546394
 20
-383.623078280636
 11
631.78782546394
 21
-384.964978280636
  0
LINE
  8
SAKUZU1
 62
     7
 10
592.262887930116
 20
-383.623078280636
 11
592.262887930116
 21
-384.964978280636
  0
LINE
  8
SAKUZU1
 62
     7
 10
596.288587930116
 20
-383.623078280636
 11
596.288587930116
 21
-384.964978280636
  0
LINE
  8
SAKUZU1
 62
     7
 10
685.585764367861
 20
-383.623078280636
 11
685.585764367861
 21
-384.964978280636
  0
LINE
  8
SAKUZU1
 62
     7
 10
681.560064367861
 20
-383.623078280636
 11
681.560064367861
 21
-384.964978280636
  0
LINE
  8
SUNPOUSEN
 62
     7
 10
611.806084338474
 20
-301.053154990552
 11
611.806084338474
 21
-308.943526990551
  0
LINE
  8
SUNPOUSEN
 62
     7
 10
601.463714064108
 20
-305.022157423208
 11
606.754053729333
 21
-298.758728644354
  0
LINE
  8
SUNPOUSEN
 62
     7
 10
606.754053729333
 20
-308.943526990551
 11
611.806084338474
 21
-308.943526990551
  0
LINE
  8
SUNPOUSEN
 62
     7
 10
601.463714064108
 20
-305.022157423208
 11
606.754053729333
 21
-311.285586202062
  0
POLYLINE
  8
SUNPOUSEN
 62
     7
 66
     1
  0
VERTEX
  8
SUNPOUSEN
 62
     7
 10
606.754053729333
 20
-311.285586202061
  0
VERTEX
  8
SUNPOUSEN
 62
     7
 10
606.754053729333
 20
-308.943526990551
  0
SEQEND
  8
SUNPOUSEN
 62
     7
  0
LINE
  8
SUNPOUSEN
 62
     7
 10
606.754053729333
 20
-301.053154990552
 11
611.806084338474
 21
-301.053154990552
  0
POLYLINE
  8
SUNPOUSEN
 62
     7
 66
     1
  0
VERTEX
  8
SUNPOUSEN
 62
     7
 10
606.754053729333
 20
-298.758728644354
  0
VERTEX
  8
SUNPOUSEN
 62
     7
 10
606.754053729333
 20
-301.053154990551
  0
SEQEND
  8
SUNPOUSEN
 62
     7
  0
LINE
  8
SUNPOUSEN
 62
     7
 10
648.920568366149
 20
-305.022157423208
 11
654.210908031374
 21
-298.758728644354
  0
LINE
  8
SUNPOUSEN
 62
     7
 10
659.262938640515
 20
-301.053154990552
 11
659.262938640515
 21
-308.943526990551
  0
LINE
  8
SUNPOUSEN
 62
     7
 10
648.920568366149
 20
-305.022157423208
 11
654.210908031374
 21
-311.285586202062
  0
LINE
  8
SUNPOUSEN
 62
     7
 10
654.210908031374
 20
-308.943526990551
 11
659.262938640515
 21
-308.943526990551
  0
POLYLINE
  8
SUNPOUSEN
 62
     7
 66
     1
  0
VERTEX
  8
SUNPOUSEN
 62
     7
 10
654.210908031374
 20
-311.285586202061
  0
VERTEX
  8
SUNPOUSEN
 62
     7
 10
654.210908031374
 20
-308.943526990551
  0
SEQEND
  8
SUNPOUSEN
 62
     7
  0
LINE
  8
SUNPOUSEN
 62
     7
 10
654.210908031374
 20
-301.053154990552
 11
659.262938640515
 21
-301.053154990552
  0
POLYLINE
  8
SUNPOUSEN
 62
     7
 66
     1
  0
VERTEX
  8
SUNPOUSEN
 62
     7
 10
654.210908031374
 20
-298.758728644354
  0
VERTEX
  8
SUNPOUSEN
 62
     7
 10
654.210908031374
 20
-301.053154990551
  0
SEQEND
  8
SUNPOUSEN
 62
     7
  0
LINE
  8
SUNPOUSEN
 62
     7
 10
720.185777287365
 20
-301.053154990552
 11
720.185777287365
 21
-308.943526990551
  0
LINE
  8
SUNPOUSEN
 62
     7
 10
730.528147561731
 20
-305.022157423208
 11
725.237807896506
 21
-298.758728644354
  0
LINE
  8
SUNPOUSEN
 62
     7
 10
777.985001863772
 20
-305.022157423208
 11
772.694662198547
 21
-298.758728644354
  0
LINE
  8
SUNPOUSEN
 62
     7
 10
767.642631589406
 20
-301.053154990552
 11
767.642631589406
 21
-308.943526990551
  0
LINE
  8
SAKUZU1
 62
     7
 10
788.72303046394
 20
-240.375253280636
 11
788.72303046394
 21
-383.623078280636
  0
LINE
  8
SAKUZU1
 62
     7
 10
740.95139046394
 20
-240.375253280636
 11
740.95139046394
 21
-383.623078280636
  0
LINE
  8
HASEN
 62
     7
 10
737.59664046394
 20
-240.375253280636
 11
737.59664046394
 21
-384.964978280636
  0
LINE
  8
SAKUZU1
 62
     7
 10
689.82500046394
 20
-240.375253280636
 11
689.82500046394
 21
-383.623078280636
  0
LINE
  8
SAKUZU1
 62
     7
 10
834.34763046394
 20
-377.588430299168
 11
788.72303046394
 21
-377.588430299168
  0
LINE
  8
SAKUZU1
 62
     7
 10
782.159828545803
 20
-383.623078280636
 11
782.159828545803
 21
-384.964978280636
  0
LINE
  8
SAKUZU1
 62
     7
 10
786.185528545803
 20
-383.623078280636
 11
786.185528545803
 21
-384.964978280636
  0
LINE
  8
SAKUZU1
 62
     7
 10
747.660890463941
 20
-383.623078280636
 11
747.660890463941
 21
-384.964978280636
  0
LINE
  8
SAKUZU1
 62
     7
 10
743.63519046394
 20
-383.623078280636
 11
743.63519046394
 21
-384.964978280636
  0
LINE
  8
SAKUZU1
 62
     7
 10
834.34763046394
 20
-379.597378280636
 11
788.72303046394
 21
-379.597378280636
  0
LINE
  8
SUNPOUSEN
 62
     7
 10
777.985001863772
 20
-305.022157423208
 11
772.694662198547
 21
-311.285586202062
  0
LINE
  8
SUNPOUSEN
 62
     7
 10
772.694662198547
 20
-308.943526990551
 11
767.642631589406
 21
-308.943526990551
  0
POLYLINE
  8
SUNPOUSEN
 62
     7
 66
     1
  0
VERTEX
  8
SUNPOUSEN
 62
     7
 10
772.694662198548
 20
-311.285586202061
  0
VERTEX
  8
SUNPOUSEN
 62
     7
 10
772.694662198548
 20
-308.943526990551
  0
SEQEND
  8
SUNPOUSEN
 62
     7
  0
LINE
  8
SAKUZU1
 62
     7
 10
698.388801285999
 20
-383.623078280636
 11
698.388801285999
 21
-384.964978280636
  0
LINE
  8
SAKUZU1
 62
     7
 10
694.363101285999
 20
-383.623078280636
 11
694.363101285999
 21
-384.964978280636
  0
LINE
  8
SAKUZU1
 62
     7
 10
734.554905121129
 20
-383.623078280636
 11
734.55490512113
 21
-384.964978280636
  0
LINE
  8
SAKUZU1
 62
     7
 10
738.58060512113
 20
-383.623078280636
 11
738.58060512113
 21
-384.964978280636
  0
LINE
  8
SUNPOUSEN
 62
     7
 10
730.528147561731
 20
-305.022157423208
 11
725.237807896506
 21
-311.285586202062
  0
LINE
  8
SUNPOUSEN
 62
     7
 10
725.237807896506
 20
-308.943526990551
 11
720.185777287365
 21
-308.943526990551
  0
POLYLINE
  8
SUNPOUSEN
 62
     7
 66
     1
  0
VERTEX
  8
SUNPOUSEN
 62
     7
 10
725.237807896507
 20
-311.285586202061
  0
VERTEX
  8
SUNPOUSEN
 62
     7
 10
725.237807896507
 20
-308.943526990551
  0
SEQEND
  8
SUNPOUSEN
 62
     7
  0
LINE
  8
SAKUZU1
 62
     7
 10
834.34763046394
 20
-241.716382898511
 11
689.82500046394
 21
-241.71638289851
  0
LINE
  8
SAKUZU1
 62
     7
 10
788.72303046394
 20
-247.030306898511
 11
689.82500046394
 21
-247.030306898511
  0
LINE
  8
HASEN
 62
     7
 10
788.72303046394
 20
-240.375253280636
 11
689.82500046394
 21
-240.375253280636
  0
LINE
  8
SAKUZU1
 62
     7
 10
689.62371546394
 20
-225.342618333289
 11
834.34763046394
 21
-225.342618333289
  0
LINE
  8
SAKUZU1
 62
     7
 10
785.36828046394
 20
-204.878643333289
 11
785.36828046394
 21
-225.342618333289
  0
LINE
  8
SAKUZU1
 62
     7
 10
788.72303046394
 20
-204.878643333289
 11
788.72303046394
 21
-225.342618333289
  0
LINE
  8
SUNPOUSEN
 62
     7
 10
772.694662198547
 20
-301.053154990552
 11
767.642631589406
 21
-301.053154990552
  0
POLYLINE
  8
SUNPOUSEN
 62
     7
 66
     1
  0
VERTEX
  8
SUNPOUSEN
 62
     7
 10
772.694662198548
 20
-298.758728644354
  0
VERTEX
  8
SUNPOUSEN
 62
     7
 10
772.694662198548
 20
-301.053154990551
  0
SEQEND
  8
SUNPOUSEN
 62
     7
  0
LINE
  8
SUNPOUSEN
 62
     7
 10
725.237807896506
 20
-301.053154990552
 11
720.185777287365
 21
-301.053154990552
  0
POLYLINE
  8
SUNPOUSEN
 62
     7
 66
     1
  0
VERTEX
  8
SUNPOUSEN
 62
     7
 10
725.237807896507
 20
-298.758728644354
  0
VERTEX
  8
SUNPOUSEN
 62
     7
 10
725.237807896507
 20
-301.053154990551
  0
SEQEND
  8
SUNPOUSEN
 62
     7
  0
INSERT
  8
SAKUZU2
 62
     7
  2
*X3
 10
0.0
 20
0.0
 30
0.0
  0
LINE
  8
SUNPOUSEN
 62
     7
 10
834.34763046394
 20
-387.382604304354
 11
834.34763046394
 21
-426.563801521532
  0
LINE
  8
SUNPOUSEN
 62
     7
 10
790.40040546394
 20
-412.778499758277
 11
829.31550546394
 21
-412.778499758277
  0
SOLID
  8
SUNPOUSEN
 62
     7
 10
790.40040546394
 20
-411.939812258277
 11
790.40040546394
 21
-413.617187258277
 12
785.36828046394
 22
-412.778499758277
 13
785.36828046394
 23
-412.778499758277
  0
SOLID
  8
SUNPOUSEN
 62
     7
 10
829.31550546394
 20
-411.939812258277
 11
829.31550546394
 21
-413.617187258277
 12
834.34763046394
 22
-412.778499758277
 13
834.34763046394
 23
-412.778499758277
  0
LINE
  8
SUNPOUSEN
 62
     7
 10
785.36828046394
 20
-387.382604304354
 11
785.36828046394
 21
-414.824286171687
  0
LINE
  8
SUNPOUSEN
 62
     7
 10
599.11256046394
 20
-412.778499758277
 11
780.33615546394
 21
-412.778499758277
  0
SOLID
  8
SUNPOUSEN
 62
     7
 10
599.11256046394
 20
-411.939812258277
 11
599.11256046394
 21
-413.617187258277
 12
594.08043546394
 22
-412.778499758277
 13
594.08043546394
 23
-412.778499758277
  0
SOLID
  8
SUNPOUSEN
 62
     7
 10
780.33615546394
 20
-411.939812258277
 11
780.33615546394
 21
-413.617187258277
 12
785.36828046394
 22
-412.778499758277
 13
785.36828046394
 23
-412.778499758277
  0
LINE
  8
SUNPOUSEN
 62
     7
 10
594.08043546394
 20
-387.382604304354
 11
594.08043546394
 21
-414.143723057782
  0
LINE
  8
SUNPOUSEN
 62
     7
 10
550.13321046394
 20
-412.778499758277
 11
589.04831046394
 21
-412.778499758277
  0
LINE
  8
SUNPOUSEN
 62
     7
 10
594.08043546394
 20
-412.778499758277
 11
611.89415796394
 21
-412.778499758277
  0
SOLID
  8
SUNPOUSEN
 62
     7
 10
550.13321046394
 20
-411.939812258277
 11
550.13321046394
 21
-413.617187258277
 12
545.10108546394
 22
-412.778499758277
 13
545.10108546394
 23
-412.778499758277
  0
SOLID
  8
SUNPOUSEN
 62
     7
 10
589.04831046394
 20
-411.939812258277
 11
589.04831046394
 21
-413.617187258277
 12
594.08043546394
 22
-412.778499758277
 13
594.08043546394
 23
-412.778499758277
  0
LINE
  8
SUNPOUSEN
 62
     7
 10
829.31550546394
 20
-424.707990758277
 11
824.28338046394
 21
-424.707990758277
  0
LINE
  8
SUNPOUSEN
 62
     7
 10
550.13321046394
 20
-424.707990758277
 11
834.34763046394
 21
-424.707990758277
  0
LINE
  8
SUNPOUSEN
 62
     7
 10
545.10108546394
 20
-387.382604304354
 11
545.10108546394
 21
-426.983302009532
  0
LINE
  8
SUNPOUSEN
 62
     7
 10
545.10108546394
 20
-424.707990758277
 11
562.91480796394
 21
-424.707990758277
  0
LINE
  8
SUNPOUSEN
 62
     7
 10
864.54038046394
 20
-384.964978280636
 11
864.54038046394
 21
-245.407378280636
  0
SOLID
  8
SUNPOUSEN
 62
     7
 10
863.705528791148
 20
-378.613968243882
 11
865.382903791148
 21
-378.613968243882
 12
864.544216291148
 22
-383.646093243882
 13
864.544216291148
 23
-383.646093243882
  0
SOLID
  8
SUNPOUSEN
 62
     7
 10
863.70169296394
 20
-245.407378280636
 11
865.37906796394
 21
-245.407378280636
 12
864.54038046394
 22
-240.375253280636
 13
864.54038046394
 23
-240.375253280636
  0
LINE
  8
SUNPOUSEN
 62
     7
 10
864.54038046394
 20
-389.997103280636
 11
864.54038046394
 21
-396.82943524723
  0
LINE
  8
SUNPOUSEN
 62
     7
 10
864.54038046394
 20
-379.261903280636
 11
864.54038046394
 21
-374.229778280636
  0
SOLID
  8
SUNPOUSEN
 62
     7
 10
863.70169296394
 20
-389.997103280636
 11
865.37906796394
 21
-389.997103280636
 12
864.54038046394
 22
-384.964978280636
 13
864.54038046394
 23
-384.964978280636
  0
SOLID
  8
SUNPOUSEN
 62
     7
 10
863.705528791148
 20
-378.613968243882
 11
865.382903791148
 21
-378.613968243882
 12
864.544216291148
 22
-383.646093243882
 13
864.544216291148
 23
-383.646093243882
  0
TEXT
  8
SUNPOUSEN
  6
CONTINUOUS
 62
     7
 10
862.076128460463
 20
-394.789749456351
 40
5.032125
  1
10
 50
90.0
  0
LINE
  8
SUNPOUSEN
 62
     7
 10
838.299478701471
 20
-204.878643333289
 11
877.71783846394
 21
-204.878643333289
  0
LINE
  8
SUNPOUSEN
 62
     7
 10
876.37593846394
 20
-220.310493333288
 11
876.37593846394
 21
-209.910768333289
  0
SOLID
  8
SUNPOUSEN
 62
     7
 10
875.53725096394
 20
-220.310493333288
 11
877.21462596394
 21
-220.310493333288
 12
876.37593846394
 22
-225.342618333289
 13
876.37593846394
 23
-225.342618333289
  0
SOLID
  8
SUNPOUSEN
 62
     7
 10
875.53725096394
 20
-209.910768333289
 11
877.21462596394
 21
-209.910768333289
 12
876.37593846394
 22
-204.878643333289
 13
876.37593846394
 23
-204.878643333289
  0
LINE
  8
SUNPOUSEN
 62
     7
 10
838.011585350316
 20
-225.342618333289
 11
878.38878846394
 21
-225.342618333289
  0
LINE
  8
SUNPOUSEN
 62
     7
 10
876.37593846394
 20
-236.684257898511
 11
876.37593846394
 21
-230.374743333288
  0
SOLID
  8
SUNPOUSEN
 62
     7
 10
875.53725096394
 20
-236.684257898511
 11
877.21462596394
 21
-236.684257898511
 12
876.37593846394
 22
-241.716382898511
 13
876.37593846394
 23
-241.716382898511
  0
SOLID
  8
SUNPOUSEN
 62
     7
 10
875.53725096394
 20
-230.374743333288
 11
877.21462596394
 21
-230.374743333288
 12
876.37593846394
 22
-225.342618333289
 13
876.37593846394
 23
-225.342618333289
  0
LINE
  8
SUNPOUSEN
 62
     7
 10
838.299478701471
 20
-384.964978280636
 11
877.71783846394
 21
-384.964978280636
  0
LINE
  8
SUNPOUSEN
 62
     7
 10
838.299478701471
 20
-241.716382898511
 11
878.38878846394
 21
-241.716382898511
  0
LINE
  8
SUNPOUSEN
 62
     7
 10
876.37593846394
 20
-379.932853280636
 11
876.37593846394
 21
-246.748507898511
  0
SOLID
  8
SUNPOUSEN
 62
     7
 10
875.53725096394
 20
-379.932853280636
 11
877.21462596394
 21
-379.932853280636
 12
876.37593846394
 22
-384.964978280636
 13
876.37593846394
 23
-384.964978280636
  0
SOLID
  8
SUNPOUSEN
 62
     7
 10
875.53725096394
 20
-246.748507898511
 11
877.21462596394
 21
-246.748507898511
 12
876.37593846394
 22
-241.716382898511
 13
876.37593846394
 23
-241.716382898511
  0
LINE
  8
SUNPOUSEN
 62
     7
 10
888.367844365702
 20
-209.910768333289
 11
888.367844365702
 21
-214.942893333289
  0
LINE
  8
SUNPOUSEN
 62
     7
 10
877.71783846394
 20
-384.964978280636
 11
890.222675459935
 21
-384.964978280636
  0
LINE
  8
SUNPOUSEN
 62
     7
 10
877.71783846394
 20
-204.878643333289
 11
890.380694365702
 21
-204.878643333289
  0
LINE
  8
SUNPOUSEN
 62
     7
 10
888.367844365703
 20
-384.964978280636
 11
888.367844365702
 21
-204.878643333289
  0
TEXT
  8
SUNPOUSEN
  6
CONTINUOUS
 62
     7
 10
861.545081286387
 20
-321.893743189767
 40
5.032125
  1
DH=H
 50
90.0
  0
TEXT
  8
SUNPOUSEN
  6
CONTINUOUS
 62
     7
 10
873.893463160895
 20
-321.607146132522
 40
5.032125
  1
H=DH
 50
90.0
  0
CIRCLE
  8
SUNPOUSEN
 62
     7
 10
883.709413575102
 20
-313.521198868493
 40
3.902828186823629
  0
TEXT
  8
SUNPOUSEN
  6
CONTINUOUS
 62
     7
 10
886.366544177056
 20
-315.247600075982
 40
5.032125
  1
H
 50
90.0
  0
TEXT
  8
SUNPOUSEN
  6
CONTINUOUS
 62
     7
 10
566.18133516712
 20
-411.002546132728
 40
5.032125
  1
FIX
  0
TEXT
  8
SUNPOUSEN
  6
CONTINUOUS
 62
     7
 10
687.607434257997
 20
-411.425516182409
 40
5.032125
  1
W
  0
TEXT
  8
SUNPOUSEN
  6
CONTINUOUS
 62
     7
 10
688.39797897211
 20
-422.716736448489
 40
5.032125
  1
W
  0
CIRCLE
  8
SUNPOUSEN
 62
     7
 10
690.989076136331
 20
-419.581631092275
 40
3.902828186823629
  0
LINE
  8
SAKUZU2
 62
     7
 10
545.10108546394
 20
-486.054852711821
 11
689.62371546394
 21
-486.054852711821
  0
LINE
  8
SAKUZU1
 62
     7
 10
689.82500046394
 20
-483.840717711821
 11
689.82500046394
 21
-485.719377711821
  0
LINE
  8
SAKUZU1
 62
     7
 10
689.62371546394
 20
-483.840717711821
 11
689.62371546394
 21
-485.719377711821
  0
LINE
  8
SAKUZU1
 62
     7
 10
214.407766270418
 20
-479.412447711823
 11
214.407766270418
 21
-479.887447711823
  0
LINE
  8
SAKUZU1
 62
     7
 10
212.394916270418
 20
-479.412447711823
 11
212.394916270418
 21
-481.103088773105
  0
LINE
  8
SAKUZU1
 62
     7
 10
212.394916270418
 20
-484.394251461823
 11
212.394916270418
 21
-486.054852711823
  0
LINE
  8
SAKUZU3
 62
     7
 10
213.401341270418
 20
-460.268812455378
 11
213.401341270418
 21
-479.412447711823
  0
LINE
  8
SAKUZU1
 62
     7
 10
211.388491270418
 20
-487.142311646169
 11
210.382066270418
 21
-487.142311646169
  0
LINE
  8
SAKUZU1
 62
     7
 10
211.388491270418
 20
-460.268812455378
 11
211.388491270418
 21
-477.946804205669
  0
LINE
  8
SAKUZU1
 62
     7
 10
210.382066270418
 20
-477.946804205669
 11
210.382066270418
 21
-487.142311646169
  0
LINE
  8
SAKUZU3
 62
     7
 10
213.401341270418
 20
-486.054852711823
 11
213.401341270418
 21
-498.746636906354
  0
LINE
  8
SAKUZU1
 62
     7
 10
211.388491270418
 20
-487.142311646169
 11
211.388491270418
 21
-498.746636906354
  0
LINE
  8
SAKUZU1
 62
     7
 10
395.966836270418
 20
-487.430300211823
 11
395.966836270418
 21
-478.037000211823
  0
LINE
  8
SAKUZU1
 62
     7
 10
391.941136270418
 20
-486.054852711823
 11
391.941136270418
 21
-479.412447711823
  0
LINE
  8
SAKUZU3
 62
     7
 10
392.947561270418
 20
-479.412447711823
 11
392.947561270418
 21
-458.75687177441
  0
LINE
  8
SAKUZU1
 62
     7
 10
394.960411270418
 20
-478.037000211823
 11
394.960411270418
 21
-458.972863435745
  0
LINE
  8
SAKUZU1
 62
     7
 10
394.960411270418
 20
-478.037000211823
 11
395.966836270418
 21
-478.037000211823
  0
LINE
  8
SAKUZU1
 62
     7
 10
393.953986270418
 20
-481.073048961823
 11
393.953986270418
 21
-479.412447711823
  0
LINE
  8
SAKUZU3
 62
     7
 10
392.947561270418
 20
-499.034625472009
 11
392.947561270418
 21
-486.054852711823
  0
LINE
  8
SAKUZU1
 62
     7
 10
394.960411270418
 20
-499.034625472009
 11
394.960411270418
 21
-487.430300211823
  0
LINE
  8
SAKUZU1
 62
     7
 10
394.960411270418
 20
-487.430300211823
 11
395.966836270418
 21
-487.430300211823
  0
LINE
  8
SAKUZU1
 62
     7
 10
393.953986270418
 20
-486.054852711823
 11
393.953986270418
 21
-484.364211650541
  0
LINE
  8
SAKUZU1
 62
     7
 10
391.941136270418
 20
-479.412447711823
 11
393.953986270418
 21
-479.412447711823
  0
LINE
  8
SAKUZU1
 62
     7
 10
391.941136270418
 20
-486.054852711823
 11
393.953986270418
 21
-486.054852711823
  0
LINE
  8
SAKUZU2
 62
     7
 10
638.89732546394
 20
-483.840717711821
 11
638.89732546394
 21
-485.719377711821
  0
LINE
  8
SAKUZU2
 62
     7
 10
638.89732546394
 20
-485.719377711821
 11
689.62371546394
 21
-485.719377711821
  0
LINE
  8
SAKUZU2
 62
     7
 10
638.89732546394
 20
-483.840717711821
 11
689.62371546394
 21
-483.840717711821
  0
LINE
  8
SAKUZU2
 62
     7
 10
641.45207546394
 20
-481.626582711821
 11
641.45207546394
 21
-483.505242711821
  0
LINE
  8
SAKUZU2
 62
     7
 10
590.72568546394
 20
-483.505242711821
 11
641.45207546394
 21
-483.505242711821
  0
LINE
  8
SAKUZU2
 62
     7
 10
590.72568546394
 20
-481.626582711821
 11
641.45207546394
 21
-481.626582711821
  0
LINE
  8
SAKUZU2
 62
     7
 10
594.08043546394
 20
-479.412447711821
 11
594.08043546394
 21
-481.291107711821
  0
LINE
  8
SAKUZU2
 62
     7
 10
545.10108546394
 20
-481.291107711821
 11
641.85207546394
 21
-481.291107711822
  0
LINE
  8
SAKUZU2
 62
     7
 10
545.10108546394
 20
-479.412447711821
 11
594.08043546394
 21
-479.412447711821
  0
LINE
  8
SAKUZU1
 62
     7
 10
545.10108546394
 20
-480.351777711821
 11
590.72568546394
 21
-480.351777711821
  0
LINE
  8
SAKUZU2
 62
     7
 10
537.091125046795
 20
-477.614663418528
 11
542.08181046394
 21
-470.325456009405
  0
LINE
  8
SAKUZU2
 62
     7
 10
537.196395287122
 20
-473.745341836229
 11
542.08181046394
 21
-466.650461867913
  0
LINE
  8
SAKUZU2
 62
     7
 10
537.143760700507
 20
-481.332473235169
 11
542.08181046394
 21
-474.12014348211
  0
LINE
  8
SAKUZU3
 62
     7
 10
544.09466046394
 20
-486.054852711821
 11
544.09466046394
 21
-499.034625472007
  0
LINE
  8
SAKUZU1
 62
     7
 10
542.08181046394
 20
-487.430300211821
 11
542.08181046394
 21
-499.034625472008
  0
LINE
  8
SAKUZU1
 62
     7
 10
545.10108546394
 20
-479.412447711821
 11
545.10108546394
 21
-479.887447711821
  0
LINE
  8
SAKUZU1
 62
     7
 10
541.07538546394
 20
-478.037000211821
 11
541.07538546394
 21
-487.430300211821
  0
LINE
  8
SAKUZU1
 62
     7
 10
542.08181046394
 20
-458.972863435743
 11
542.08181046394
 21
-478.037000211821
  0
LINE
  8
SAKUZU3
 62
     7
 10
544.09466046394
 20
-458.972863435743
 11
544.09466046394
 21
-479.412447711821
  0
LINE
  8
SAKUZU1
 62
     7
 10
543.08823546394
 20
-479.412447711821
 11
543.08823546394
 21
-481.103088773103
  0
LINE
  8
SAKUZU1
 62
     7
 10
545.10108546394
 20
-479.412447711821
 11
543.08823546394
 21
-479.412447711821
  0
LINE
  8
SAKUZU1
 62
     7
 10
542.08181046394
 20
-478.037000211821
 11
541.07538546394
 21
-478.037000211821
  0
LINE
  8
SAKUZU1
 62
     7
 10
542.08181046394
 20
-487.430300211821
 11
541.07538546394
 21
-487.430300211821
  0
LINE
  8
SAKUZU1
 62
     7
 10
545.10108546394
 20
-486.054852711821
 11
543.08823546394
 21
-486.054852711821
  0
LINE
  8
SAKUZU1
 62
     7
 10
543.08823546394
 20
-484.394251461821
 11
543.08823546394
 21
-486.054852711821
  0
LINE
  8
SAKUZU1
 62
     7
 10
837.36690546394
 20
-487.430300211821
 11
838.37333046394
 21
-487.430300211821
  0
LINE
  8
SAKUZU1
 62
     7
 10
837.36690546394
 20
-478.037000211821
 11
838.37333046394
 21
-478.037000211821
  0
LINE
  8
SAKUZU1
 62
     7
 10
838.37333046394
 20
-478.037000211821
 11
838.37333046394
 21
-487.430300211821
  0
LINE
  8
SAKUZU2
 62
     7
 10
834.34763046394
 20
-486.054852711821
 11
689.62371546394
 21
-486.054852711821
  0
LINE
  8
SAKUZU2
 62
     7
 10
740.55139046394
 20
-485.719377711821
 11
689.82500046394
 21
-485.719377711821
  0
LINE
  8
SAKUZU2
 62
     7
 10
740.55139046394
 20
-483.840717711821
 11
689.82500046394
 21
-483.840717711821
  0
LINE
  8
SAKUZU1
 62
     7
 10
837.36690546394
 20
-487.430300211821
 11
837.36690546394
 21
-499.034625472008
  0
LINE
  8
SAKUZU3
 62
     7
 10
835.35405546394
 20
-486.054852711821
 11
835.35405546394
 21
-499.034625472007
  0
LINE
  8
SAKUZU2
 62
     7
 10
788.72303046394
 20
-483.505242711821
 11
737.99664046394
 21
-483.505242711821
  0
LINE
  8
SAKUZU2
 62
     7
 10
788.72303046394
 20
-481.626582711821
 11
737.99664046394
 21
-481.626582711821
  0
LINE
  8
SAKUZU1
 62
     7
 10
837.36690546394
 20
-458.972863435743
 11
837.36690546394
 21
-478.037000211821
  0
LINE
  8
SAKUZU3
 62
     7
 10
835.35405546394
 20
-458.972863435743
 11
835.35405546394
 21
-479.412447711821
  0
LINE
  8
SAKUZU1
 62
     7
 10
834.34763046394
 20
-480.351777711821
 11
788.72303046394
 21
-480.351777711821
  0
LINE
  8
SAKUZU2
 62
     7
 10
834.34763046394
 20
-481.291107711821
 11
737.59664046394
 21
-481.291107711822
  0
LINE
  8
SAKUZU2
 62
     7
 10
834.34763046394
 20
-479.412447711821
 11
785.36828046394
 21
-479.412447711821
  0
LINE
  8
SAKUZU1
 62
     7
 10
834.34763046394
 20
-479.412447711821
 11
834.34763046394
 21
-479.887447711821
  0
LINE
  8
SAKUZU1
 62
     7
 10
836.36048046394
 20
-484.394251461821
 11
836.36048046394
 21
-486.054852711821
  0
LINE
  8
SAKUZU1
 62
     7
 10
834.34763046394
 20
-486.054852711821
 11
836.36048046394
 21
-486.054852711821
  0
LINE
  8
SAKUZU1
 62
     7
 10
836.36048046394
 20
-479.412447711821
 11
836.36048046394
 21
-481.103088773103
  0
LINE
  8
SAKUZU1
 62
     7
 10
834.34763046394
 20
-479.412447711821
 11
836.36048046394
 21
-479.412447711821
  0
LINE
  8
SAKUZU1
 62
     7
 10
785.36828046394
 20
-479.412447711821
 11
785.36828046394
 21
-481.291107711821
  0
LINE
  8
SAKUZU1
 62
     7
 10
788.72303046394
 20
-479.412447711821
 11
788.72303046394
 21
-479.887447711821
  0
LINE
  8
SAKUZU2
 62
     7
 10
737.59664046394
 20
-481.291107711822
 11
737.59664046394
 21
-483.505242711821
  0
LINE
  8
SAKUZU1
 62
     7
 10
689.82500046394
 20
-483.840717711821
 11
689.82500046394
 21
-485.719377711821
  0
LINE
  8
SAKUZU2
 62
     7
 10
838.37333046394
 20
-479.146903012142
 11
843.98639733448
 21
-471.19795599488
  0
LINE
  8
SAKUZU2
 62
     7
 10
838.438075049998
 20
-482.98974413366
 11
844.051141920538
 21
-475.040797116398
  0
LINE
  8
SAKUZU2
 62
     7
 10
838.37333046394
 20
-487.34538987699
 11
843.98639733448
 21
-479.396442859728
  0
LINE
  8
SAKUZU1
 62
     7
 10
211.388491270418
 20
-477.946804205669
 11
210.382066270418
 21
-477.946804205669
  0
TEXT
  8
SAKUZU1
  6
CONTINUOUS
 10
273.629596826805
 20
-569.857020369762
 40
4.83084
  1
ドア幅(DW)の求め方
  0
INSERT
  8
SAKUZU1
  2
*X4
 10
0.0
 20
0.0
 30
0.0
  0
INSERT
  8
SAKUZU1
  2
*X5
 10
0.0
 20
0.0
 30
0.0
  0
LINE
  8
SAKUZU1
 10
292.519362664345
 20
-580.69452698529
 11
330.21949873927
 21
-580.69452698529
  0
TEXT
  8
SAKUZU1
  6
CONTINUOUS
 10
290.23700923286
 20
-594.686363496065
 40
4.83084
  1
(DW＝FIX)
  0
INSERT
  8
SAKUZU1
  2
*X6
 10
0.0
 20
0.0
 30
0.0
  0
INSERT
  8
SAKUZU1
  2
*X7
 10
0.0
 20
0.0
 30
0.0
  0
TEXT
  8
SAKUZU1
  6
CONTINUOUS
 10
297.207326437675
 20
-641.566452959733
 40
4.83084
  1
＝900
  0
LINE
  8
SAKUZU1
 10
303.83778576987
 20
-627.92882143031
 11
351.270168446506
 21
-627.92882143031
  0
TEXT
  8
SAKUZU1
  6
CONTINUOUS
 10
223.746823881506
 20
-570.633259210164
 40
4.83084
  1
W
  0
CIRCLE
  8
SAKUZU1
 10
226.040009684123
 20
-567.564987947169
 40
3.406974196422471
  0
CIRCLE
  8
SAKUZU1
 10
183.275504752756
 20
-577.529426625025
 40
3.406974196422471
  0
TEXT
  8
SAKUZU1
  6
CONTINUOUS
 10
180.88231895014
 20
-580.59769788802
 40
4.83084
  1
W
  0
TEXT
  8
SAKUZU1
  6
CONTINUOUS
 10
190.077768699998
 20
-627.516064288913
 40
4.83084
  1
W
  0
CIRCLE
  8
SAKUZU1
 10
192.470954502614
 20
-624.447793025918
 40
3.406974196422471
  0
CIRCLE
  8
SAKUZU1
 10
297.359682454135
 20
-576.093073399509
 40
3.406974196422471
  0
TEXT
  8
SAKUZU1
  6
CONTINUOUS
 10
295.066496651519
 20
-579.161344662504
 40
4.83084
  1
W
  0
TEXT
  8
SAKUZU1
  6
CONTINUOUS
 10
326.466692753617
 20
-610.903777529498
 40
4.83084
  1
W
  0
CIRCLE
  8
SAKUZU1
 10
328.759878556233
 20
-607.835506266503
 40
3.406974196422471
  0
CIRCLE
  8
SAKUZU1
 10
573.996521528222
 20
-622.458357509372
 40
3.406974196422471
  0
TEXT
  8
SAKUZU1
  6
CONTINUOUS
 10
571.703335725606
 20
-625.526628772367
 40
4.83084
  1
W
  0
TEXT
  8
SAKUZU1
  6
CONTINUOUS
 10
561.950586945307
 20
-580.562569271689
 40
4.83084
  1
W
  0
CIRCLE
  8
SAKUZU1
 10
564.243772747924
 20
-577.494298008694
 40
3.406974196422471
  0
CIRCLE
  8
SAKUZU1
 10
602.994387518456
 20
-566.13243679628
 40
3.406974196422471
  0
TEXT
  8
SAKUZU1
  6
CONTINUOUS
 10
600.70120171584
 20
-569.200708059275
 40
4.83084
  1
W
  0
INSERT
  8
SAKUZU1
  2
*X8
 10
0.0
 20
0.0
 30
0.0
  0
INSERT
  8
SAKUZU1
  2
*X9
 10
0.0
 20
0.0
 30
0.0
  0
LINE
  8
SAKUZU1
 10
684.84442676301
 20
-626.619583434498
 11
734.386375426543
 21
-626.619583434498
  0
INSERT
  8
SAKUZU1
  2
*X10
 10
0.0
 20
0.0
 30
0.0
  0
TEXT
  8
SAKUZU1
  6
CONTINUOUS
 10
669.360085175369
 20
-593.253812345176
 40
4.83084
  1
(DW＝FIX)
  0
TEXT
  8
SAKUZU1
  6
CONTINUOUS
 10
678.213967430814
 20
-640.257214963921
 40
4.83084
  1
＝800
  0
INSERT
  8
SAKUZU1
  2
*X11
 10
0.0
 20
0.0
 30
0.0
  0
CIRCLE
  8
SAKUZU1
 10
708.977585220161
 20
-606.526268270691
 40
3.406974196422471
  0
TEXT
  8
SAKUZU1
  6
CONTINUOUS
 10
706.684399417545
 20
-609.594539533686
 40
4.83084
  1
W
  0
LINE
  8
SAKUZU1
 10
671.474367067942
 20
-579.261975834402
 11
709.174503142866
 21
-579.261975834402
  0
TEXT
  8
SAKUZU1
  6
CONTINUOUS
 10
652.752672769314
 20
-568.424469218874
 40
4.83084
  1
ドア幅(DW)の求め方
  0
INSERT
  8
SAKUZU1
  2
*X12
 10
0.0
 20
0.0
 30
0.0
  0
CIRCLE
  8
SAKUZU1
 10
676.314686857732
 20
-574.66052224862
 40
3.406974196422471
  0
TEXT
  8
SAKUZU1
  6
CONTINUOUS
 10
674.021501055115
 20
-577.728793511615
 40
4.83084
  1
W
  0
TEXT
  8
SAKUZU1
 62
     7
 10
662.504185045511
 20
-188.602931951475
 40
8.4
  1
引分　内観姿図
  0
TEXT
  8
SUNPOUSEN
  6
CONTINUOUS
 62
     7
 10
805.213839475956
 20
-411.445266017288
 40
5.032125
  1
FIX
  0
TEXT
  8
SUNPOUSEN
  6
CONTINUOUS
 62
     7
 10
449.248910638111
 20
-221.360744806814
 40
5.032125
  1
FIX
 50
90.0
  0
TEXT
  8
SUNPOUSEN
  6
CONTINUOUS
 62
     7
 10
874.109026708003
 20
-222.041473849046
 40
5.032125
  1
FIX
 50
90.0
  0
LINE
  8
SUNPOUSEN
 62
     7
 10
585.69356046394
 20
-362.152678280636
 11
576.859640372737
 21
-362.152678280636
  0
LINE
  8
SUNPOUSEN
 62
     7
 10
599.11256046394
 20
-362.152678280636
 11
604.14468546394
 21
-362.152678280636
  0
LINE
  8
SUNPOUSEN
 62
     7
 10
590.72568546394
 20
-362.152678280636
 11
594.08043546394
 21
-362.152678280636
  0
SOLID
  8
SUNPOUSEN
 62
     7
 10
585.69356046394
 20
-361.313990780636
 11
585.69356046394
 21
-362.991365780636
 12
590.72568546394
 22
-362.152678280636
 13
590.72568546394
 23
-362.152678280636
  0
SOLID
  8
SUNPOUSEN
 62
     7
 10
599.11256046394
 20
-361.313990780636
 11
599.11256046394
 21
-362.991365780636
 12
594.08043546394
 22
-362.152678280636
 13
594.08043546394
 23
-362.152678280636
  0
LINE
  8
SUNPOUSEN
 62
     7
 10
633.46520046394
 20
-362.142803790834
 11
628.43307546394
 21
-362.142803790834
  0
LINE
  8
SUNPOUSEN
 62
     7
 10
646.88420046394
 20
-362.142803790834
 11
656.992954746384
 21
-362.142803790834
  0
LINE
  8
SUNPOUSEN
 62
     7
 10
638.49732546394
 20
-362.142803790834
 11
641.85207546394
 21
-362.142803790834
  0
SOLID
  8
SUNPOUSEN
 62
     7
 10
633.46520046394
 20
-361.304116290834
 11
633.46520046394
 21
-362.981491290834
 12
638.49732546394
 22
-362.142803790834
 13
638.49732546394
 23
-362.142803790834
  0
SOLID
  8
SUNPOUSEN
 62
     7
 10
646.88420046394
 20
-361.304116290834
 11
646.88420046394
 21
-362.981491290834
 12
641.85207546394
 22
-362.142803790834
 13
641.85207546394
 23
-362.142803790834
  0
TEXT
  8
SUNPOUSEN
  6
CONTINUOUS
 62
     7
 10
646.932451296969
 20
-359.999999238112
 40
5.032125
  1
50
  0
TEXT
  8
SUNPOUSEN
  6
CONTINUOUS
 62
     7
 10
578.343350791516
 20
-360.169741328542
 40
5.032125
  1
50
  0
LINE
  8
SUNPOUSEN
 62
     7
 10
595.75781046394
 20
-346.049878280636
 11
636.81995046394
 21
-346.049878280636
  0
SOLID
  8
SUNPOUSEN
 62
     7
 10
595.75781046394
 20
-345.211190780636
 11
595.75781046394
 21
-346.888565780636
 12
590.72568546394
 22
-346.049878280636
 13
590.72568546394
 23
-346.049878280636
  0
SOLID
  8
SUNPOUSEN
 62
     7
 10
636.81995046394
 20
-345.211190780636
 11
636.81995046394
 21
-346.888565780636
 12
641.85207546394
 22
-346.049878280636
 13
641.85207546394
 23
-346.049878280636
  0
LINE
  8
SUNPOUSEN
 62
     7
 10
745.98351546394
 20
-361.704331680302
 11
756.01523750305
 21
-361.704331680302
  0
LINE
  8
SUNPOUSEN
 62
     7
 10
732.56451546394
 20
-361.704331680302
 11
726.135018750086
 21
-361.704331680302
  0
LINE
  8
SUNPOUSEN
 62
     7
 10
740.95139046394
 20
-361.704331680302
 11
737.59664046394
 21
-361.704331680302
  0
SOLID
  8
SUNPOUSEN
 62
     7
 10
745.98351546394
 20
-360.865644180302
 11
745.98351546394
 21
-362.543019180302
 12
740.95139046394
 22
-361.704331680302
 13
740.95139046394
 23
-361.704331680302
  0
SOLID
  8
SUNPOUSEN
 62
     7
 10
732.56451546394
 20
-360.865644180302
 11
732.56451546394
 21
-362.543019180302
 12
737.59664046394
 22
-361.704331680302
 13
737.59664046394
 23
-361.704331680302
  0
TEXT
  8
SUNPOUSEN
  6
CONTINUOUS
 62
     7
 10
746.268162978755
 20
-359.418074717862
 40
5.032125
  1
50
  0
LINE
  8
SUNPOUSEN
 62
     7
 10
793.75515546394
 20
-361.704331680302
 11
804.951758913234
 21
-361.704331680302
  0
LINE
  8
SUNPOUSEN
 62
     7
 10
780.33615546394
 20
-361.704331680302
 11
774.403063423297
 21
-361.704331680302
  0
LINE
  8
SUNPOUSEN
 62
     7
 10
788.72303046394
 20
-361.704331680302
 11
785.36828046394
 21
-361.704331680302
  0
SOLID
  8
SUNPOUSEN
 62
     7
 10
793.75515546394
 20
-360.865644180302
 11
793.75515546394
 21
-362.543019180302
 12
788.72303046394
 22
-361.704331680302
 13
788.72303046394
 23
-361.704331680302
  0
SOLID
  8
SUNPOUSEN
 62
     7
 10
780.33615546394
 20
-360.865644180302
 11
780.33615546394
 21
-362.543019180302
 12
785.36828046394
 22
-361.704331680302
 13
785.36828046394
 23
-361.704331680302
  0
TEXT
  8
SUNPOUSEN
  6
CONTINUOUS
 62
     7
 10
794.577826538699
 20
-359.20927838443
 40
5.032125
  1
50
  0
LINE
  8
SUNPOUSEN
 62
     7
 10
788.72303046394
 20
-349.938300931294
 11
788.72303046394
 21
-341.37764462195
  0
LINE
  8
SUNPOUSEN
 62
     7
 10
783.69090546394
 20
-346.258674614068
 11
742.62876546394
 21
-346.258674614068
  0
SOLID
  8
SUNPOUSEN
 62
     7
 10
783.69090546394
 20
-345.419987114068
 11
783.69090546394
 21
-347.097362114068
 12
788.72303046394
 22
-346.258674614068
 13
788.72303046394
 23
-346.258674614068
  0
SOLID
  8
SUNPOUSEN
 62
     7
 10
742.62876546394
 20
-345.419987114068
 11
742.62876546394
 21
-347.097362114068
 12
737.59664046394
 22
-346.258674614068
 13
737.59664046394
 23
-346.258674614068
  0
LINE
  8
SUNPOUSEN
 62
     7
 10
689.82500046394
 20
-330.618028280636
 11
689.82500046394
 21
-330.663949589768
  0
LINE
  8
SUNPOUSEN
 62
     7
 10
740.95139046394
 20
-330.618028280636
 11
740.95139046394
 21
-330.663949589768
  0
LINE
  8
SUNPOUSEN
 62
     7
 10
735.91926546394
 20
-329.992999589767
 11
694.85712546394
 21
-329.992999589767
  0
LINE
  8
SUNPOUSEN
 62
     7
 10
689.82500046394
 20
-329.992999589767
 11
638.49732546394
 21
-329.992999589767
  0
SOLID
  8
SUNPOUSEN
 62
     7
 10
735.91926546394
 20
-329.154312089768
 11
735.91926546394
 21
-330.831687089768
 12
740.95139046394
 22
-329.992999589767
 13
740.95139046394
 23
-329.992999589767
  0
SOLID
  8
SUNPOUSEN
 62
     7
 10
694.85712546394
 20
-329.154312089768
 11
694.85712546394
 21
-330.831687089768
 12
689.82500046394
 22
-329.995011098087
 13
689.82500046394
 23
-329.995011098087
  0
SOLID
  8
SUNPOUSEN
 62
     7
 10
643.52945046394
 20
-329.154312089767
 11
643.52945046394
 21
-330.831687089767
 12
638.49732546394
 22
-329.992999589767
 13
638.49732546394
 23
-329.992999589767
  0
SOLID
  8
SUNPOUSEN
 62
     7
 10
684.59159046394
 20
-329.108390780636
 11
684.59159046394
 21
-330.785765780636
 12
689.62371546394
 22
-329.98898985954
 13
689.62371546394
 23
-329.98898985954
  0
TEXT
  8
SUNPOUSEN
  6
CONTINUOUS
 62
     7
 10
659.201661556855
 20
-327.934059526625
 40
5.032125
  1
DW
  0
TEXT
  8
SUNPOUSEN
  6
CONTINUOUS
 62
     7
 10
709.59570501377
 20
-327.934059526625
 40
5.032125
  1
DW
  0
TEXT
  8
SUNPOUSEN
  6
CONTINUOUS
 62
     7
 10
608.814774327185
 20
-344.526148738022
 40
5.032125
  1
DW
  0
TEXT
  8
SUNPOUSEN
  6
CONTINUOUS
 62
     7
 10
759.448478039234
 20
-344.526148738022
 40
5.032125
  1
DW
  0
TEXT
  8
SUNPOUSEN
  6
CONTINUOUS
 62
     7
 10
683.522995966553
 20
-337.100338910003
 40
5.032125
  1
3
  0
LINE
  8
SAKUZU3
 62
     7
 10
671.839362327884
 20
-450.778096265428
 11
671.839362327884
 21
-463.125770876405
  0
LINE
  8
SAKUZU3
 62
     7
 10
707.609353599996
 20
-463.125770876405
 11
707.609353599996
 21
-450.778096265428
  0
TEXT
  8
SAKUZU1
  6
CONTINUOUS
 62
     7
 10
678.641144499851
 20
-460.366130304669
 40
7.044975
  1
外　部
  0
LINE
  8
SAKUZU3
 62
     7
 10
671.839362327884
 20
-463.125770876405
 11
707.609353599996
 21
-463.125770876405
  0
LINE
  8
SAKUZU3
 62
     7
 10
707.609353599996
 20
-450.778096265428
 11
671.839362327884
 21
-450.778096265428
  0
LINE
  8
SAKUZU3
 62
     7
 10
671.514180356225
 20
-516.204062306779
 11
707.284171628337
 21
-516.204062306779
  0
LINE
  8
SAKUZU3
 62
     7
 10
707.284171628337
 20
-503.856387695801
 11
671.514180356225
 21
-503.856387695801
  0
TEXT
  8
SAKUZU1
  6
CONTINUOUS
 62
     7
 10
678.386629983722
 20
-513.58798183567
 40
7.044975
  1
内　部
  0
LINE
  8
SAKUZU3
 62
     7
 10
671.514180356225
 20
-503.856387695801
 11
671.514180356225
 21
-516.204062306779
  0
LINE
  8
SAKUZU3
 62
     7
 10
707.284171628337
 20
-516.204062306779
 11
707.284171628337
 21
-503.856387695801
  0
LINE
  8
SAKUZU2
 62
     7
 10
590.72568546394
 20
-481.626582711821
 11
590.72568546394
 21
-483.505242711821
  0
LINE
  8
SAKUZU1
 62
     7
 10
788.72303046394
 20
-481.626582711821
 11
788.72303046394
 21
-483.505242711821
  0
LINE
  8
SAKUZU1
 62
     7
 10
330.415021270418
 20
-383.623078280638
 11
330.415021270418
 21
-240.37189833329
  0
LINE
  8
HASEN
 62
     7
 10
785.36828046394
 20
-240.375253280636
 11
785.36828046394
 21
-384.964978280636
  0
LINE
  8
SAKUZU3
 62
     7
 10
834.34763046394
 20
-202.647188836011
 11
834.34763046394
 21
-384.964978280636
  0
LINE
  8
SAKUZU3
 62
     7
 10
545.10108546394
 20
-202.647188836011
 11
545.10108546394
 21
-384.964978280636
  0
LINE
  8
SUNPOUSEN
 62
     7
 10
838.307119448638
 20
-240.375253280636
 11
866.55323046394
 21
-240.375253280636
  0
LINE
  8
SUNPOUSEN
 62
     7
 10
838.299478701471
 20
-383.623078280636
 11
866.55323046394
 21
-383.623078280636
  0
LINE
  8
SAKUZU2
 62
     7
 10
689.82500046394
 20
-244.376622817968
 11
697.109672648652
 21
-244.376622817968
  0
LINE
  8
SAKUZU2
 62
     7
 10
719.944520836403
 20
-244.336590823141
 11
740.95139046394
 21
-244.336590823141
  0
LINE
  8
SAKUZU2
 62
     7
 10
776.687790757734
 20
-244.344969458775
 11
788.72303046394
 21
-244.344969458775
  0
LINE
  8
SAKUZU2
 62
     7
 10
740.95139046394
 20
-244.344969458775
 11
761.495850977641
 21
-244.344969458775
  0
LINE
  8
SAKUZU2
 62
     7
 10
689.82500046394
 20
-245.880675843834
 11
695.633748710364
 21
-245.880675843834
  0
LINE
  8
SAKUZU2
 62
     7
 10
718.576206435342
 20
-245.681163495434
 11
740.95139046394
 21
-245.681163495434
  0
LINE
  8
SAKUZU2
 62
     7
 10
775.602023163796
 20
-245.752964182758
 11
788.72303046394
 21
-245.752964182758
  0
LINE
  8
SAKUZU2
 62
     7
 10
740.95139046394
 20
-245.718758950848
 11
760.272093213182
 21
-245.718758950848
  0
LINE
  8
SAKUZU2
 62
     7
 10
689.82500046394
 20
-242.954172110346
 11
698.283053674643
 21
-242.954172110346
  0
LINE
  8
SAKUZU2
 62
     7
 10
721.134819695806
 20
-243.017155575126
 11
740.95139046394
 21
-243.017155575126
  0
LINE
  8
SAKUZU2
 62
     7
 10
679.068396959684
 20
-242.973220423141
 11
689.62371546394
 21
-242.973220423141
  0
LINE
  8
SAKUZU2
 62
     7
 10
594.08043546394
 20
-242.973220423141
 11
610.167408628646
 21
-242.973220423141
  0
LINE
  8
SAKUZU2
 62
     7
 10
638.49732546394
 20
-242.973220423141
 11
656.318895741309
 21
-242.973220423141
  0
LINE
  8
SAKUZU2
 62
     7
 10
625.512979419335
 20
-242.973220423141
 11
638.49732546394
 21
-242.973220423141
  0
LINE
  8
SAKUZU2
 62
     7
 10
677.12583139657
 20
-244.36580764292
 11
689.62371546394
 21
-244.36580764292
  0
LINE
  8
SAKUZU2
 62
     7
 10
594.08043546394
 20
-244.507012123141
 11
608.17961947409
 21
-244.507012123141
  0
LINE
  8
SAKUZU2
 62
     7
 10
638.49732546394
 20
-244.507012123141
 11
654.331106586753
 21
-244.507012123141
  0
LINE
  8
SAKUZU2
 62
     7
 10
623.570413856221
 20
-244.507012123141
 11
638.49732546394
 21
-244.507012123141
  0
LINE
  8
SAKUZU2
 62
     7
 10
675.183265833457
 20
-245.89959934292
 11
689.62371546394
 21
-245.89959934292
  0
LINE
  8
SAKUZU2
 62
     7
 10
594.08043546394
 20
-245.86886020041
 11
606.191830319534
 21
-245.86886020041
  0
LINE
  8
SAKUZU2
 62
     7
 10
638.49732546394
 20
-246.040803823141
 11
652.343317432197
 21
-246.040803823141
  0
LINE
  8
SAKUZU2
 62
     7
 10
621.627848293108
 20
-246.040803823141
 11
638.49732546394
 21
-246.040803823141
  0
LINE
  8
SAKUZU2
 62
     7
 10
740.95139046394
 20
-243.017155575126
 11
761.495850977641
 21
-243.017155575126
  0
LINE
  8
SAKUZU2
 62
     7
 10
777.481596837384
 20
-243.017155575126
 11
788.72303046394
 21
-243.017155575126
  0
LINE
  8
SAKUZU2
 62
     7
 10
689.82500046394
 20
-379.079656607199
 11
704.775217580012
 21
-379.079656607199
  0
LINE
  8
SAKUZU2
 62
     7
 10
724.912679508156
 20
-378.956487006334
 11
740.95139046394
 21
-378.956487006334
  0
LINE
  8
SAKUZU2
 62
     7
 10
777.644698579065
 20
-378.956487006334
 11
788.72303046394
 21
-378.956487006334
  0
LINE
  8
SAKUZU2
 62
     7
 10
740.95139046394
 20
-378.956487006334
 11
754.34835446535
 21
-378.956487006334
  0
LINE
  8
SAKUZU2
 62
     7
 10
689.82500046394
 20
-380.613448307199
 11
703.581015348968
 21
-380.613448307199
  0
LINE
  8
SAKUZU2
 62
     7
 10
723.861052659749
 20
-380.490278706334
 11
740.95139046394
 21
-380.490278706334
  0
LINE
  8
SAKUZU2
 62
     7
 10
777.179019113207
 20
-380.490278706334
 11
788.72303046394
 21
-380.490278706334
  0
LINE
  8
SAKUZU2
 62
     7
 10
740.95139046394
 20
-380.490278706334
 11
753.660330173523
 21
-380.490278706334
  0
LINE
  8
SAKUZU2
 62
     7
 10
689.82500046394
 20
-382.147240007199
 11
702.386813117924
 21
-382.147240007199
  0
LINE
  8
SAKUZU2
 62
     7
 10
722.809425811341
 20
-382.024070406334
 11
740.95139046394
 21
-382.024070406334
  0
LINE
  8
SAKUZU2
 62
     7
 10
776.713339647348
 20
-382.024070406334
 11
788.72303046394
 21
-382.024070406334
  0
LINE
  8
SAKUZU2
 62
     7
 10
740.95139046394
 20
-382.024070406334
 11
752.972305881696
 21
-382.024070406334
  0
LINE
  8
SAKUZU2
 62
     7
 10
672.816849441238
 20
-379.079656607199
 11
689.62371546394
 21
-379.079656607199
  0
LINE
  8
SAKUZU2
 62
     7
 10
590.72568546394
 20
-378.740279588666
 11
606.990498800288
 21
-378.740279588666
  0
LINE
  8
SAKUZU2
 62
     7
 10
638.49732546394
 20
-378.740279588666
 11
652.798762085628
 21
-378.740279588666
  0
LINE
  8
SAKUZU2
 62
     7
 10
631.061328743217
 20
-378.740279588666
 11
638.49732546394
 21
-378.740279588666
  0
LINE
  8
SAKUZU2
 62
     7
 10
671.793557421477
 20
-380.613448307199
 11
689.62371546394
 21
-380.613448307199
  0
LINE
  8
SAKUZU2
 62
     7
 10
590.72568546394
 20
-380.274071288666
 11
605.967206780527
 21
-380.274071288666
  0
LINE
  8
SAKUZU2
 62
     7
 10
638.49732546394
 20
-380.274071288666
 11
651.775470065866
 21
-380.274071288666
  0
LINE
  8
SAKUZU2
 62
     7
 10
630.038036723455
 20
-380.274071288666
 11
638.49732546394
 21
-380.274071288666
  0
LINE
  8
SAKUZU2
 62
     7
 10
670.770265401716
 20
-382.147240007199
 11
689.62371546394
 21
-382.147240007199
  0
LINE
  8
SAKUZU2
 62
     7
 10
590.72568546394
 20
-381.807862988666
 11
604.943914760766
 21
-381.807862988666
  0
LINE
  8
SAKUZU2
 62
     7
 10
638.49732546394
 20
-381.807862988666
 11
650.752178046105
 21
-381.807862988666
  0
LINE
  8
SAKUZU2
 62
     7
 10
629.014744703694
 20
-381.807862988666
 11
638.49732546394
 21
-381.807862988666
  0
LINE
  8
SAKUZU2
 62
     7
 10
375.148618359598
 20
-379.021703180637
 11
391.270186270418
 21
-379.021703180637
  0
LINE
  8
SAKUZU2
 62
     7
 10
272.444941270418
 20
-379.021703180637
 11
294.842861623117
 21
-379.021703180637
  0
LINE
  8
SAKUZU2
 62
     7
 10
330.415021270418
 20
-379.021703180637
 11
357.812270928468
 21
-379.021703180637
  0
LINE
  8
SAKUZU2
 62
     7
 10
318.44980398655
 20
-379.021703180637
 11
330.415021270418
 21
-379.021703180637
  0
LINE
  8
SAKUZU2
 62
     7
 10
374.050587256491
 20
-380.555494880638
 11
391.270186270418
 21
-380.555494880638
  0
LINE
  8
SAKUZU2
 62
     7
 10
272.444941270418
 20
-380.555494880638
 11
293.74483052001
 21
-380.555494880638
  0
LINE
  8
SAKUZU2
 62
     7
 10
330.415021270418
 20
-380.555494880637
 11
356.714239825361
 21
-380.555494880638
  0
LINE
  8
SAKUZU2
 62
     7
 10
317.351772883443
 20
-380.555494880638
 11
330.415021270418
 21
-380.555494880638
  0
LINE
  8
SAKUZU2
 62
     7
 10
372.952556153384
 20
-382.089286580638
 11
391.270186270418
 21
-382.089286580638
  0
LINE
  8
SAKUZU2
 62
     7
 10
272.444941270418
 20
-382.089286580638
 11
292.646799416903
 21
-382.089286580638
  0
LINE
  8
SAKUZU2
 62
     7
 10
330.415021270418
 20
-382.089286580638
 11
355.616208722254
 21
-382.089286580638
  0
LINE
  8
SAKUZU2
 62
     7
 10
316.253741780336
 20
-382.089286580638
 11
330.415021270418
 21
-382.089286580638
  0
TEXT
  8
SAKUZU1
  6
CONTINUOUS
 10
171.541700693201
 20
-570.025231693725
 40
4.83084
  1
1
  0
TEXT
  8
SAKUZU1
  6
CONTINUOUS
 10
267.484878539393
 20
-569.646745339672
 40
4.4
  1
2
  0
CIRCLE
  8
SAKUZU1
 10
172.284121657808
 20
-567.713904704402
 40
3.113208000000001
  0
CIRCLE
  8
SAKUZU1
 10
268.876936762015
 20
-567.635948176536
 40
3.113208000000001
  0
CIRCLE
  8
SAKUZU1
 10
554.767760056527
 20
-566.287943883974
 40
3.113208000000001
  0
TEXT
  8
SAKUZU1
  6
CONTINUOUS
 10
554.02533909192
 20
-568.599270873298
 40
4.83084
  1
1
  0
CIRCLE
  8
SAKUZU1
 10
649.570700557725
 20
-566.203397025647
 40
3.113208000000001
  0
TEXT
  8
SAKUZU1
  6
CONTINUOUS
 10
648.178642335103
 20
-568.214194188784
 40
4.4
  1
2
  0
TEXT
  8
SAKUZU1
  6
CONTINUOUS
 10
355.336571289919
 20
-569.970233631654
 40
4.4
  1
3
  0
CIRCLE
  8
SAKUZU1
 10
356.728629512541
 20
-567.635948176536
 40
3.113208000000001
  0
INSERT
  8
SAKUZU1
  2
*X13
 10
0.0
 20
0.0
 30
0.0
  0
INSERT
  8
SAKUZU1
  2
*X14
 10
0.0
 20
0.0
 30
0.0
  0
TEXT
  8
SAKUZU1
  6
CONTINUOUS
 10
385.059019188201
 20
-641.566452959733
 40
4.83084
  1
＝900
  0
LINE
  8
SAKUZU1
 10
380.371055414871
 20
-580.69452698529
 11
418.071191489795
 21
-580.69452698529
  0
LINE
  8
SAKUZU1
 10
391.689478520396
 20
-627.92882143031
 11
438.249241597314
 21
-627.92882143031
  0
INSERT
  8
SAKUZU1
  2
*X15
 10
0.0
 20
0.0
 30
0.0
  0
INSERT
  8
SAKUZU1
  2
*X16
 10
0.0
 20
0.0
 30
0.0
  0
INSERT
  8
SAKUZU1
  2
*X17
 10
0.0
 20
0.0
 30
0.0
  0
TEXT
  8
SAKUZU1
  6
CONTINUOUS
 10
382.918189402045
 20
-579.161344662504
 40
4.83084
  1
W
  0
TEXT
  8
SAKUZU1
  6
CONTINUOUS
 10
361.260457319267
 20
-569.857020369762
 40
4.83084
  1
開口幅（W)が分かっている場合
  0
LINE
  8
SAKUZU1
 10
772.02082622028
 20
-626.619583434498
 11
821.210487482508
 21
-626.619583434498
  0
INSERT
  8
SAKUZU1
  2
*X18
 10
0.0
 20
0.0
 30
0.0
  0
INSERT
  8
SAKUZU1
  2
*X19
 10
0.0
 20
0.0
 30
0.0
  0
TEXT
  8
SAKUZU1
  6
CONTINUOUS
 10
765.390366888085
 20
-640.257214963921
 40
4.83084
  1
＝800
  0
LINE
  8
SAKUZU1
 10
758.650766525212
 20
-579.261975834402
 11
796.350902600137
 21
-579.261975834402
  0
TEXT
  8
SAKUZU1
  6
CONTINUOUS
 10
756.53648463264
 20
-593.253812345176
 40
4.83084
  1
(DW＝FIX)
  0
INSERT
  8
SAKUZU1
  2
*X20
 10
0.0
 20
0.0
 30
0.0
  0
INSERT
  8
SAKUZU1
  2
*X21
 10
0.0
 20
0.0
 30
0.0
  0
INSERT
  8
SAKUZU1
  2
*X22
 10
0.0
 20
0.0
 30
0.0
  0
TEXT
  8
SAKUZU1
  6
CONTINUOUS
 10
761.197900512386
 20
-577.728793511615
 40
4.83084
  1
W
  0
TEXT
  8
SAKUZU1
  6
CONTINUOUS
 10
740.70823996852
 20
-568.424469218874
 40
4.83084
  1
開口幅(W)が分かっている場合
  0
TEXT
  8
SAKUZU1
  6
CONTINUOUS
 10
735.355041792374
 20
-568.495708163977
 40
4.4
  1
3
  0
CIRCLE
  8
SAKUZU1
 10
736.747100014996
 20
-566.203397025647
 40
3.113208000000001
  0
SOLID
  8
SUNPOUSEN
 62
     7
 10
335.447146270418
 20
-329.033266954847
 11
335.447146270418
 21
-330.710641954846
 12
330.415021270418
 22
-329.871954454847
 13
330.415021270418
 23
-329.871954454847
  0
POLYLINE
  8
図面枠
 62
     7
 66
     1
 70
     1
  0
VERTEX
  8
図面枠
 62
     7
 10
163.801451014105
 20
-712.424435843449
  0
VERTEX
  8
図面枠
 62
     7
 10
923.801451014105
 20
-712.424435843449
  0
VERTEX
  8
図面枠
 62
     7
 10
923.801451014105
 20
-156.424435843449
  0
VERTEX
  8
図面枠
 62
     7
 10
163.801451014105
 20
-156.424435843449
  0
SEQEND
  8
図面枠
 62
     7
  0
LINE
  8
図面枠
 10
163.801451014105
 20
-656.424435843449
 11
923.801451014105
 21
-656.424435843449
  0
LINE
  8
図面枠
 62
   178
 10
751.283000188561
 20
-676.424435843449
 11
923.801451014105
 21
-676.424435843449
  0
LINE
  8
図面枠
 62
   178
 10
751.283000188561
 20
-656.424435843449
 11
751.283000188561
 21
-712.424435843449
  0
LINE
  8
図面枠
 62
   178
 10
883.001059087791
 20
-676.424435843449
 11
883.001059087791
 21
-656.424435843449
  0
POLYLINE
  8
図面枠
 66
     1
 70
     1
  0
VERTEX
  8
図面枠
 10
923.801451014105
 20
-336.424435843449
  0
VERTEX
  8
図面枠
 10
947.801451014105
 20
-336.424435843449
  0
VERTEX
  8
図面枠
 10
947.801451014105
 20
-386.424435843449
  0
VERTEX
  8
図面枠
 10
923.801451014105
 20
-386.424435843449
  0
SEQEND
  8
図面枠
  0
TEXT
  8
図面枠
  6
CONTINUOUS
 10
929.361451014105
 20
-378.328167985802
 40
10.0
  1
３
  7
ＭＳゴシック
  0
TEXT
  8
図面枠
  6
CONTINUOUS
 10
932.474553647478
 20
-363.170660862442
 40
5.0
  1
｜
  7
ＭＳゴシック
  0
TEXT
  8
図面枠
  6
CONTINUOUS
 10
929.026451014105
 20
-351.656154340122
 40
10.0
  1
Ｃ
  7
ＭＳゴシック
  0
LINE
  8
SAKUZU3
 10
686.237113813984
 20
-663.054262666709
 11
686.237113813984
 21
-703.472546247822
  0
LINE
  8
SAKUZU3
 10
628.237113813984
 20
-663.054262666709
 11
628.237113813984
 21
-705.054262666709
  0
LINE
  8
SAKUZU3
 62
     7
 10
628.237113813984
 20
-663.054262666709
 11
686.237113813984
 21
-663.054262666709
  0
LINE
  8
TYUSINSEN
 62
     7
 10
634.595873207822
 20
-659.904957067403
 11
634.595873207822
 21
-676.85822466956
  0
LINE
  8
SAKUZU1
  6
DASHEDX2
 62
     7
 10
639.237113813984
 20
-663.054262666709
 11
639.237113813984
 21
-671.054262666709
  0
LINE
  8
SAKUZU1
  6
DASHEDX2
 62
     7
 10
630.237113813984
 20
-663.054262666709
 11
630.237113813984
 21
-671.054262666709
  0
LINE
  8
TYUSINSEN
 62
     7
 10
680.05799795152
 20
-659.904957067403
 11
680.05799795152
 21
-677.386267103917
  0
LINE
  8
SAKUZU1
  6
DASHEDX2
 62
     7
 10
675.237113813984
 20
-663.054262666709
 11
675.237113813984
 21
-671.054262666709
  0
LINE
  8
SAKUZU1
  6
DASHEDX2
 62
     7
 10
684.237113813984
 20
-663.054262666709
 11
684.237113813984
 21
-671.054262666709
  0
LINE
  8
SAKUZU2
 62
     7
 10
628.237113813984
 20
-673.054262666709
 11
686.237113813984
 21
-673.054262666709
  0
LINE
  8
SUNPOUSEN
 62
     7
 10
642.987113813984
 20
-686.787047647804
 11
642.487113813984
 21
-686.787047647804
  0
LINE
  8
SUNPOUSEN
 62
     7
 10
627.737113813984
 20
-686.787047647804
 11
614.395104169868
 21
-686.787047647804
  0
LINE
  8
SUNPOUSEN
 62
     7
 10
645.754207923157
 20
-686.787047647804
 11
630.237113813984
 21
-686.787047647804
  0
SOLID
  8
SUNPOUSEN
 62
     7
 10
642.987113813984
 20
-686.162047647804
 11
642.987113813984
 21
-687.412047647804
 12
639.237113813984
 22
-686.787047647804
 13
639.237113813984
 23
-686.787047647804
  0
SOLID
  8
SUNPOUSEN
 62
     7
 10
626.487113813984
 20
-686.162047647804
 11
626.487113813984
 21
-687.412047647804
 12
630.237113813984
 22
-686.787047647804
 13
630.237113813984
 23
-686.787047647804
  0
LINE
  8
SUNPOUSEN
 62
     7
 10
625.737113813984
 20
-699.056685249855
 11
609.575052140762
 21
-699.056685249855
  0
LINE
  8
SUNPOUSEN
 62
     7
 10
641.166186849257
 20
-699.056685249855
 11
628.237113813984
 21
-699.056685249855
  0
SOLID
  8
SUNPOUSEN
 62
     7
 10
638.345873207822
 20
-698.431685249855
 11
638.345873207822
 21
-699.681685249855
 12
634.595873207822
 22
-699.056685249855
 13
634.595873207822
 23
-699.056685249855
  0
SOLID
  8
SUNPOUSEN
 62
     7
 10
624.487113813984
 20
-698.431685249855
 11
624.487113813984
 21
-699.681685249855
 12
628.237113813984
 22
-699.056685249855
 13
628.237113813984
 23
-699.056685249855
  0
LINE
  8
SUNPOUSEN
 62
     7
 10
688.737113813984
 20
-699.056685249855
 11
705.988786099741
 21
-699.056685249855
  0
LINE
  8
SUNPOUSEN
 62
     7
 10
673.72109642697
 20
-699.056685249855
 11
686.237113813984
 21
-699.056685249855
  0
SOLID
  8
SUNPOUSEN
 62
     7
 10
676.30799795152
 20
-698.431685249855
 11
676.30799795152
 21
-699.681685249855
 12
680.05799795152
 22
-699.056685249855
 13
680.05799795152
 23
-699.056685249855
  0
SOLID
  8
SUNPOUSEN
 62
     7
 10
689.987113813984
 20
-698.431685249855
 11
689.987113813984
 21
-699.681685249855
 12
686.237113813984
 22
-699.056685249855
 13
686.237113813984
 23
-699.056685249855
  0
LINE
  8
SUNPOUSEN
 62
     7
 10
671.487113813984
 20
-686.787047647804
 11
668.987113813984
 21
-686.787047647804
  0
LINE
  8
SUNPOUSEN
 62
     7
 10
686.737113813984
 20
-686.787047647804
 11
699.425156632911
 21
-686.787047647804
  0
LINE
  8
SUNPOUSEN
 62
     7
 10
675.237113813984
 20
-686.787047647804
 11
684.237113813984
 21
-686.787047647804
  0
SOLID
  8
SUNPOUSEN
 62
     7
 10
671.487113813984
 20
-686.162047647804
 11
671.487113813984
 21
-687.412047647804
 12
675.237113813984
 22
-686.787047647804
 13
675.237113813984
 23
-686.787047647804
  0
SOLID
  8
SUNPOUSEN
 62
     7
 10
687.987113813984
 20
-686.162047647804
 11
687.987113813984
 21
-687.412047647804
 12
684.237113813984
 22
-686.787047647804
 13
684.237113813984
 23
-686.787047647804
  0
LINE
  8
SUNPOUSEN
 62
     7
 10
675.237113813984
 20
-675.054262666709
 11
675.237113813984
 21
-688.040296426005
  0
LINE
  8
SUNPOUSEN
 62
     7
 10
684.237113813984
 20
-675.054262666709
 11
684.237113813984
 21
-688.227918597858
  0
LINE
  8
SUNPOUSEN
 62
     7
 10
630.237113813984
 20
-675.054262666709
 11
630.237113813984
 21
-688.609916054633
  0
LINE
  8
SUNPOUSEN
 62
     7
 10
639.237113813983
 20
-675.054262666709
 11
639.237113813984
 21
-688.609916054633
  0
LINE
  8
SUNPOUSEN
 62
     7
 10
680.05799795152
 20
-678.876550577353
 11
680.05799795152
 21
-700.635326685143
  0
LINE
  8
SUNPOUSEN
 62
     7
 10
634.595873207822
 20
-678.367566634206
 11
634.595873207822
 21
-701.144301574377
  0
TEXT
  8
SAKUZU1
 10
177.333212575705
 20
-570.192424505606
 40
4.83084
  1
エンジンの長さ（　 )の求め方
 41
0.97
  0
TEXT
  8
SAKUZU1
 10
177.333212575705
 20
-580.308320063772
 40
4.83084
  1
　　＝DW×3－100＋3
  0
TEXT
  8
SAKUZU1
 10
177.333212575705
 20
-588.359720063772
 40
4.83084
  1
　　　(DW=FIX)
  0
TEXT
  8
SAKUZU1
 10
177.333212575705
 20
-610.449424505606
 40
4.83084
  1
例) 扉幅寸法(DW)が900mm
 41
0.98
  0
TEXT
  8
SAKUZU1
 10
177.333212575705
 20
-618.500824505606
 40
4.83084
  1
    の場合
  0
TEXT
  8
SAKUZU1
 10
177.333212575705
 20
-626.552224505606
 40
4.83084
  1
　　   ＝900×3－100＋3
  0
TEXT
  8
SAKUZU1
 10
177.333212575705
 20
-634.603624505606
 40
4.83084
  1
　　   ＝2603
  0
TEXT
  8
SAKUZU1
 10
558.301480570873
 20
-568.759873354718
 40
4.83084
  1
エンジンの長さ( 　)の求め方
 41
0.97
  0
TEXT
  8
SAKUZU1
 10
558.301480570873
 20
-579.610403608217
 40
4.83084
  1
　　＝DW×6－200＋3
  0
TEXT
  8
SAKUZU1
 10
558.301480570873
 20
-587.971608819494
 40
4.83084
  1
　　　(DW＝FIX)
  0
TEXT
  8
SAKUZU1
 10
558.301480570873
 20
-609.016873354718
 40
4.83084
  1
例) 扉幅寸法(DW)が800mm
  0
TEXT
  8
SAKUZU1
 10
558.301480570873
 20
-617.068273354718
 40
4.83084
  1
    の場合
  0
TEXT
  8
SAKUZU1
 10
558.301480570873
 20
-625.119673354718
 40
4.83084
  1
　　   ＝800×6－200＋3
  0
TEXT
  8
SAKUZU1
 10
558.301480570873
 20
-633.171073354718
 40
4.83084
  1
　　   ＝4603
  0
LINE
  8
SAKUZU3
 10
546.565603626801
 20
-539.04847729854
 11
546.565603626801
 21
-649.261680089007
  0
POLYLINE
  8
SAKUZU1
 62
     7
 66
     1
  0
VERTEX
  8
SAKUZU1
 62
     7
 10
657.297948971946
 20
-704.28392793316
  0
VERTEX
  8
SAKUZU1
 62
     7
 10
662.178198502251
 20
-702.642778029078
  0
VERTEX
  8
SAKUZU1
 62
     7
 10
667.415512232886
 20
-701.635563073
  0
VERTEX
  8
SAKUZU1
 62
     7
 10
672.834400124776
 20
-701.296032464158
  0
VERTEX
  8
SAKUZU1
 62
     7
 10
678.253288016667
 20
-701.635563073
  0
VERTEX
  8
SAKUZU1
 62
     7
 10
683.490601747301
 20
-702.642778029078
  0
VERTEX
  8
SAKUZU1
 62
     7
 10
688.370851277607
 20
-704.28392793316
  0
SEQEND
  8
SAKUZU1
 62
     7
  0
POLYLINE
  8
SAKUZU1
 62
     7
 66
     1
  0
VERTEX
  8
SAKUZU1
 62
     7
 10
625.688665304011
 20
-704.28392793316
  0
VERTEX
  8
SAKUZU1
 62
     7
 10
631.790468478892
 20
-706.053712409819
  0
VERTEX
  8
SAKUZU1
 62
     7
 10
638.249774220829
 20
-706.955132013895
  0
VERTEX
  8
SAKUZU1
 62
     7
 10
644.829722119902
 20
-706.955132013895
  0
VERTEX
  8
SAKUZU1
 62
     7
 10
651.289027861839
 20
-706.053712409819
  0
VERTEX
  8
SAKUZU1
 62
     7
 10
657.39083103672
 20
-704.28392793316
  0
SEQEND
  8
SAKUZU1
 62
     7
  0
TEXT
  8
SUNPOUSEN
 62
     7
 10
688.512080348791
 20
-684.366513777206
 40
4.5
  1
120
  0
TEXT
  8
SUNPOUSEN
 62
     7
 10
615.502894826461
 20
-684.366513777206
 40
4.5
  1
120
  0
TEXT
  8
SUNPOUSEN
 62
     7
 10
691.045956082585
 20
-696.909860558996
 40
4.5
  1
(100)
  0
TEXT
  8
SUNPOUSEN
 62
     7
 10
610.094801900703
 20
-696.909860558996
 40
4.5
  1
(100)
  0
LINE
  8
SAKUZU1
 62
     7
 10
590.72568546394
 20
-482.565912711821
 11
641.45207546394
 21
-482.565912711821
  0
LINE
  8
SAKUZU1
 62
     7
 10
638.89732546394
 20
-484.780047711821
 11
689.62371546394
 21
-484.780047711821
  0
LINE
  8
SAKUZU1
 62
     7
 10
740.55139046394
 20
-484.780047711821
 11
689.82500046394
 21
-484.780047711821
  0
LINE
  8
SAKUZU1
 62
     7
 10
788.72303046394
 20
-482.565912711821
 11
737.99664046394
 21
-482.565912711821
  0
LINE
  8
SAKUZU3
 62
     7
 10
272.444941270418
 20
-482.565912711823
 11
333.369771270418
 21
-482.565912711823
  0
LINE
  8
SAKUZU3
 62
     7
 10
330.815021270418
 20
-484.780047711823
 11
391.941136270418
 21
-484.780047711823
  0
LINE
  8
SAKUZU2
 62
     7
 10
214.407766270418
 20
-479.887447711823
 11
272.444941270418
 21
-479.887447711823
  0
LINE
  8
SAKUZU2
 62
     7
 10
214.407766270418
 20
-480.816107711823
 11
272.444941270418
 21
-480.816107711823
  0
LINE
  8
SAKUZU1
 62
     7
 10
273.439648620418
 20
-480.816107711823
 11
273.439648620418
 21
-479.887447711823
  0
LINE
  8
SAKUZU1
 62
     7
 10
272.444941270418
 20
-479.887447711823
 11
272.444941270418
 21
-479.412447711823
  0
LINE
  8
SAKUZU1
 62
     7
 10
273.439648620418
 20
-479.887447711823
 11
272.444941270418
 21
-479.887447711823
  0
LINE
  8
SAKUZU1
 62
     7
 10
272.444941270418
 20
-480.816107711823
 11
272.444941270418
 21
-481.291107711823
  0
LINE
  8
SAKUZU1
 62
     7
 10
272.444941270418
 20
-480.816107711823
 11
273.439648620418
 21
-480.816107711823
  0
LINE
  8
SAKUZU1
 62
     7
 10
272.444941270418
 20
-481.626582711823
 11
272.444941270418
 21
-482.041156999992
  0
LINE
  8
SAKUZU1
 62
     7
 10
213.413058920418
 20
-480.816107711823
 11
213.413058920418
 21
-479.887447711823
  0
LINE
  8
SAKUZU1
 62
     7
 10
213.413058920418
 20
-479.887447711823
 11
214.407766270418
 21
-479.887447711823
  0
LINE
  8
SAKUZU1
 62
     7
 10
214.407766270418
 20
-480.816107711823
 11
213.413058920418
 21
-480.816107711823
  0
LINE
  8
SAKUZU1
 62
     7
 10
214.407766270418
 20
-480.816107711823
 11
214.407766270418
 21
-486.054852711823
  0
LINE
  8
SAKUZU2
 62
     7
 10
333.769771270418
 20
-483.505242711823
 11
391.941136270418
 21
-483.505242711823
  0
LINE
  8
SAKUZU3
 62
     7
 10
545.101085463941
 20
-480.351777711821
 11
590.72568546394
 21
-480.351777711821
  0
LINE
  8
SAKUZU1
 62
     7
 10
591.72039281394
 20
-480.816107711821
 11
591.72039281394
 21
-479.887447711821
  0
LINE
  8
SAKUZU1
 62
     7
 10
590.72568546394
 20
-479.887447711821
 11
590.72568546394
 21
-479.412447711821
  0
LINE
  8
SAKUZU1
 62
     7
 10
591.72039281394
 20
-479.887447711821
 11
590.72568546394
 21
-479.887447711821
  0
LINE
  8
SAKUZU1
 62
     7
 10
590.72568546394
 20
-480.816107711821
 11
590.72568546394
 21
-481.291107711821
  0
LINE
  8
SAKUZU1
 62
     7
 10
590.72568546394
 20
-480.816107711821
 11
591.72039281394
 21
-480.816107711821
  0
LINE
  8
SAKUZU1
 62
     7
 10
544.106378113941
 20
-480.816107711821
 11
544.106378113941
 21
-479.887447711821
  0
LINE
  8
SAKUZU1
 62
     7
 10
544.106378113941
 20
-479.887447711821
 11
545.101085463941
 21
-479.887447711821
  0
LINE
  8
SAKUZU1
 62
     7
 10
545.101085463941
 20
-480.816107711821
 11
544.106378113941
 21
-480.816107711821
  0
LINE
  8
SAKUZU1
 62
     7
 10
545.10108546394
 20
-480.816107711821
 11
545.10108546394
 21
-486.054852711821
  0
LINE
  8
SAKUZU2
 62
     7
 10
641.85207546394
 20
-481.291107711822
 11
641.85207546394
 21
-483.505242711821
  0
LINE
  8
SAKUZU2
 62
     7
 10
641.85207546394
 20
-483.505242711821
 11
737.59664046394
 21
-483.505242711821
  0
LINE
  8
SAKUZU1
 62
     7
 10
333.369771270418
 20
-483.505242711823
 11
333.369771270418
 21
-481.626582711823
  0
LINE
  8
SAKUZU2
 62
     7
 10
737.99664046394
 20
-481.626582711821
 11
737.99664046394
 21
-483.505242711821
  0
LINE
  8
SAKUZU2
 62
     7
 10
740.55139046394
 20
-483.840717711821
 11
740.55139046394
 21
-485.719377711821
  0
LINE
  8
SAKUZU3
 62
     7
 10
834.347630463939
 20
-480.351777711821
 11
788.72303046394
 21
-480.351777711821
  0
LINE
  8
SAKUZU1
 62
     7
 10
787.72832311394
 20
-480.816107711821
 11
787.72832311394
 21
-479.887447711821
  0
LINE
  8
SAKUZU1
 62
     7
 10
788.72303046394
 20
-479.887447711821
 11
788.72303046394
 21
-479.412447711821
  0
LINE
  8
SAKUZU1
 62
     7
 10
787.72832311394
 20
-479.887447711821
 11
788.72303046394
 21
-479.887447711821
  0
LINE
  8
SAKUZU1
 62
     7
 10
788.72303046394
 20
-480.816107711821
 11
788.72303046394
 21
-481.291107711821
  0
LINE
  8
SAKUZU1
 62
     7
 10
788.72303046394
 20
-480.816107711821
 11
787.72832311394
 21
-480.816107711821
  0
LINE
  8
SAKUZU1
 62
     7
 10
835.342337813939
 20
-480.816107711821
 11
835.342337813939
 21
-479.887447711821
  0
LINE
  8
SAKUZU1
 62
     7
 10
835.342337813939
 20
-479.887447711821
 11
834.347630463939
 21
-479.887447711821
  0
LINE
  8
SAKUZU1
 62
     7
 10
834.347630463939
 20
-480.816107711821
 11
835.342337813939
 21
-480.816107711821
  0
LINE
  8
SAKUZU1
 62
     7
 10
834.34763046394
 20
-480.816107711821
 11
834.34763046394
 21
-486.054852711821
  0
LINE
  8
SAKUZU1
 62
     7
 10
788.72303046394
 20
-480.816107711821
 11
788.72303046394
 21
-481.291107711821
  0
LINE
  8
SUNPOUSEN
  6
PHANTOM
 62
     7
 10
387.944440361677
 20
-223.059406087471
 11
402.919858217701
 21
-223.059406087471
  0
LINE
  8
HASEN
 62
     7
 10
399.5597899013
 20
-290.588593161514
 11
406.109545440424
 21
-290.588593161514
  0
LINE
  8
HASEN
 62
     7
 10
406.109545440424
 20
-290.588593161514
 11
406.109545440424
 21
-299.136984997121
  0
LINE
  8
HASEN
 62
     7
 10
406.109545440424
 20
-299.136984997121
 11
399.5597899013
 21
-299.136984997121
  0
LINE
  8
HASEN
 62
     7
 10
399.5597899013
 20
-299.136984997121
 11
399.5597899013
 21
-290.588593161514
  0
LINE
  8
HASEN
 62
     7
 10
402.919858217701
 20
-299.136984997121
 11
402.919858217701
 21
-336.350976293658
  0
LINE
  8
SUNPOUSEN
 62
     7
 10
404.784168924217
 20
-334.621123799092
 11
401.116752525209
 21
-338.024038015195
  0
LINE
  8
SUNPOUSEN
 62
     7
 10
404.626993339204
 20
-336.505814998322
 11
400.959576940196
 21
-339.908729214425
  0
TEXT
  8
SUNPOUSEN
 62
     7
 10
410.587899408824
 20
-278.527857270161
 40
4.180783190625
  1
2次配管%%C19
 50
90.0
  0
TEXT
  8
SUNPOUSEN
 62
     7
 10
417.555871393198
 20
-278.527857270161
 40
4.180783190625
  1
（電気工事）
 50
90.0
  0
TEXT
  8
SUNPOUSEN
 62
     7
 10
408.002918063053
 20
-292.088271571243
 40
4.180783190625
  1
手許スイッチ
  0
TEXT
  8
SUNPOUSEN
 62
     7
 10
408.002918063053
 20
-299.056243555617
 40
4.180783190625
  1
(電気工事)
  0
TEXT
  8
SUNPOUSEN
 62
     7
 10
410.587898064381
 20
-359.846412460228
 40
4.180783190625
  1
1次電源AC100V3A
 50
90.0
  0
TEXT
  8
SUNPOUSEN
 62
     7
 10
417.555870048756
 20
-359.846412460228
 40
4.180783190625
  1
(電気工事)
 50
90.0
  0
LINE
  8
SUNPOUSEN
 62
     7
 10
404.486441990825
 20
-247.247826978698
 11
400.819025591818
 21
-250.6507411948
  0
LINE
  8
SUNPOUSEN
 62
     7
 10
404.643617575838
 20
-245.363135779467
 11
400.976201176831
 21
-248.76604999557
  0
LINE
  8
SUNPOUSEN
  6
PHANTOM
 62
     7
 10
402.919858217701
 20
-223.059406087471
 11
402.919858217701
 21
-246.962573799795
  0
CIRCLE
  8
SUNPOUSEN
 62
     7
 10
387.944440361677
 20
-231.404758221292
 40
0.5351402484000001
  0
INSERT
  8
SUNPOUSEN
 62
     7
  2
*U23
 10
0.0
 20
0.0
 30
0.0
  0
LINE
  8
SUNPOUSEN
 62
     7
 10
387.944440361677
 20
-231.404758221292
 11
387.944440361677
 21
-223.059406087471
  0
LINE
  8
SUNPOUSEN
  6
PHANTOM
 62
     7
 10
548.896496372682
 20
-221.012931742271
 11
533.921078516658
 21
-221.012931742271
  0
LINE
  8
HASEN
 62
     7
 10
537.281146833058
 20
-290.588593161514
 11
530.731391293935
 21
-290.588593161514
  0
LINE
  8
HASEN
 62
     7
 10
530.731391293935
 20
-290.588593161514
 11
530.731391293935
 21
-299.136984997121
  0
LINE
  8
HASEN
 62
     7
 10
530.731391293935
 20
-299.136984997121
 11
537.281146833058
 21
-299.136984997121
  0
LINE
  8
HASEN
 62
     7
 10
537.281146833058
 20
-299.136984997121
 11
537.281146833058
 21
-290.588593161514
  0
LINE
  8
HASEN
 62
     7
 10
533.921078516658
 20
-299.136984997121
 11
533.921078516658
 21
-336.350976293658
  0
LINE
  8
SUNPOUSEN
  6
PHANTOM
 62
     7
 10
533.921078516658
 20
-221.012931742271
 11
533.921078516658
 21
-246.962573799795
  0
CIRCLE
  8
SUNPOUSEN
 62
     7
 10
548.896496372682
 20
-231.40475822129
 40
0.5351402484000001
  0
INSERT
  8
SUNPOUSEN
 62
     7
  2
*U24
 10
0.0
 20
0.0
 30
0.0
  0
LINE
  8
SUNPOUSEN
 62
     7
 10
548.896496372682
 20
-231.40475822129
 11
548.896496372682
 21
-221.012931742269
  0
LINE
  8
SUNPOUSEN
 62
     7
 10
535.785389223174
 20
-334.621123799092
 11
532.117972824166
 21
-338.024038015195
  0
LINE
  8
SUNPOUSEN
 62
     7
 10
535.628213638161
 20
-336.505814998322
 11
531.960797239153
 21
-339.908729214425
  0
LINE
  8
SUNPOUSEN
 62
     7
 10
535.487662289782
 20
-247.247826978698
 11
531.820245890775
 21
-250.6507411948
  0
LINE
  8
SUNPOUSEN
 62
     7
 10
535.644837874795
 20
-245.363135779467
 11
531.977421475788
 21
-248.76604999557
  0
TEXT
  8
SUNPOUSEN
 62
     7
 10
497.875969020909
 20
-292.088271571243
 40
4.180783190625
  1
手許スイッチ
  0
TEXT
  8
SUNPOUSEN
 62
     7
 10
497.875969020909
 20
-299.056243555617
 40
4.180783190625
  1
(電気工事)
  0
TEXT
  8
SUNPOUSEN
 62
     7
 10
523.180032762006
 20
-278.527857270161
 40
4.180783190625
  1
2次配管%%C19
 50
90.0
  0
TEXT
  8
SUNPOUSEN
 62
     7
 10
530.148004746381
 20
-278.527857270161
 40
4.180783190625
  1
(電気工事)
 50
90.0
  0
TEXT
  8
SUNPOUSEN
 62
     7
 10
523.180031417564
 20
-359.846412460228
 40
4.180783190625
  1
1次電源AC100V3A
 50
90.0
  0
TEXT
  8
SUNPOUSEN
 62
     7
 10
530.148003401939
 20
-359.846412460228
 40
4.180783190625
  1
（電気工事）
 50
90.0
  0
TEXT
  8
SUNPOUSEN
 62
     7
 10
917.588565742176
 20
-161.523428056886
 40
3.0
  1
22
  0
INSERT
  8
MOJI
 62
     7
  2
*U25
 10
0.0
 20
0.0
 30
0.0
  0
INSERT
  8
MOJI
 62
     7
  2
*U26
 10
0.0
 20
0.0
 30
0.0
  0
INSERT
  8
MOJI
 62
     7
  2
*U27
 10
0.0
 20
0.0
 30
0.0
  0
INSERT
  8
MOJI
 62
     7
  2
*U28
 10
0.0
 20
0.0
 30
0.0
  0
INSERT
  8
MOJI
 62
     7
  2
*U29
 10
0.0
 20
0.0
 30
0.0
  0
INSERT
  8
MOJI
 62
     7
  2
*U30
 10
0.0
 20
0.0
 30
0.0
  0
INSERT
  8
MOJI
 62
     7
  2
*U31
 10
0.0
 20
0.0
 30
0.0
  0
INSERT
  8
MOJI
 62
     7
  2
*U32
 10
0.0
 20
0.0
 30
0.0
  0
INSERT
  8
MOJI
 62
     7
  2
*U33
 10
0.0
 20
0.0
 30
0.0
  0
INSERT
  8
MOJI
 62
     7
  2
*U34
 10
0.0
 20
0.0
 30
0.0
  0
INSERT
  8
MOJI
 62
     7
  2
*U35
 10
0.0
 20
0.0
 30
0.0
  0
INSERT
  8
MOJI
 62
     7
  2
*U36
 10
0.0
 20
0.0
 30
0.0
  0
INSERT
  8
MOJI
 62
     7
  2
*U37
 10
0.0
 20
0.0
 30
0.0
  0
INSERT
  8
MOJI
 62
     7
  2
*U38
 10
0.0
 20
0.0
 30
0.0
  0
INSERT
  8
MOJI
 62
     7
  2
*U39
 10
0.0
 20
0.0
 30
0.0
  0
INSERT
  8
MOJI
 62
     7
  2
*U40
 10
0.0
 20
0.0
 30
0.0
  0
INSERT
  8
MOJI
 62
     7
  2
*U41
 10
0.0
 20
0.0
 30
0.0
  0
INSERT
  8
MOJI
 62
     7
  2
*U42
 10
0.0
 20
0.0
 30
0.0
  0
INSERT
  8
MOJI
 62
     7
  2
*U43
 10
0.0
 20
0.0
 30
0.0
  0
INSERT
  8
MOJI
 62
     7
  2
*U44
 10
0.0
 20
0.0
 30
0.0
  0
INSERT
  8
MOJI
 62
     7
  2
*U45
 10
0.0
 20
0.0
 30
0.0
  0
INSERT
  8
MOJI
 62
     7
  2
*U46
 10
0.0
 20
0.0
 30
0.0
  0
INSERT
  8
MOJI
 62
     7
  2
*U47
 10
0.0
 20
0.0
 30
0.0
  0
INSERT
  8
MOJI
 62
     7
  2
*U48
 10
0.0
 20
0.0
 30
0.0
  0
INSERT
  8
MOJI
 62
     7
  2
*U49
 10
0.0
 20
0.0
 30
0.0
  0
INSERT
  8
MOJI
 62
     7
  2
*U50
 10
0.0
 20
0.0
 30
0.0
  0
INSERT
  8
MOJI
 62
     7
  2
*U51
 10
0.0
 20
0.0
 30
0.0
  0
INSERT
  8
MOJI
 62
     7
  2
*U52
 10
0.0
 20
0.0
 30
0.0
  0
INSERT
  8
MOJI
 62
     7
  2
*U53
 10
0.0
 20
0.0
 30
0.0
  0
INSERT
  8
MOJI
 62
     7
  2
*U54
 10
0.0
 20
0.0
 30
0.0
  0
INSERT
  8
MOJI
 62
     7
  2
*U55
 10
0.0
 20
0.0
 30
0.0
  0
INSERT
  8
説明文
  2
*X56
 10
0.0
 20
0.0
 30
0.0
  0
TEXT
  8
図面枠
 10
757.352527299576
 20
-671.369406338708
 40
10.0
  1
２重引戸（ＣＮ･ＢＷ）計算式
 41
0.77
  0
TEXT
  8
説明文
 10
497.741820906443
 20
-665.524300811911
 40
6.0
  1
● 各ドア吊元タップ加工
 41
0.98
  0
TEXT
  8
SUNPOUSEN
 62
     7
 10
546.878670757936
 20
-351.676370029457
 40
4.5
  1
戸袋注意シール
 41
0.74
  0
INSERT
  8
SUNPOUSEN
 62
     7
  2
*X57
 10
0.0
 20
0.0
 30
0.0
  0
LINE
  8
SUNPOUSEN
 62
     7
 10
578.39114927399
 20
-328.42732940177
 11
578.391149273989
 21
-336.921902858167
  0
LINE
  8
SUNPOUSEN
 62
     7
 10
585.225685463941
 20
-328.42732940177
 11
585.22568546394
 21
-336.921902858167
  0
LINE
  8
SUNPOUSEN
 62
     7
 10
578.391149273989
 20
-336.921902858167
 11
585.22568546394
 21
-336.921902858167
  0
LINE
  8
SUNPOUSEN
 62
     7
 10
580.003649273989
 20
-336.018902858167
 11
583.613185463939
 21
-336.018902858167
  0
LINE
  8
SUNPOUSEN
 62
     7
 10
578.39114927399
 20
-328.42732940177
 11
585.225685463941
 21
-328.42732940177
  0
LINE
  8
SUNPOUSEN
 62
     7
 10
580.003649273989
 20
-329.330329401771
 11
583.61318546394
 21
-329.330329401771
  0
CIRCLE
  8
SUNPOUSEN
 62
     7
 10
581.808417368965
 20
-332.674616129969
 40
2.322
  0
LINE
  8
SUNPOUSEN
 62
     7
 10
583.264002376433
 20
-334.483747492262
 11
580.352832361496
 21
-330.865484767675
  0
LINE
  8
SUNPOUSEN
 62
     7
 10
794.223030463941
 20
-328.42732940177
 11
794.22303046394
 21
-336.921902858167
  0
LINE
  8
SUNPOUSEN
 62
     7
 10
801.057566653892
 20
-328.42732940177
 11
801.057566653891
 21
-336.921902858167
  0
LINE
  8
SUNPOUSEN
 62
     7
 10
794.22303046394
 20
-336.921902858167
 11
801.057566653891
 21
-336.921902858167
  0
LINE
  8
SUNPOUSEN
 62
     7
 10
795.83553046394
 20
-336.018902858167
 11
799.445066653892
 21
-336.018902858167
  0
CIRCLE
  8
SUNPOUSEN
 62
     7
 10
797.640298558916
 20
-332.674616129969
 40
2.322
  0
LINE
  8
SUNPOUSEN
 62
     7
 10
799.095883566384
 20
-334.483747492262
 11
796.184713551448
 21
-330.865484767675
  0
LINE
  8
SUNPOUSEN
 62
     7
 10
794.223030463941
 20
-328.42732940177
 11
801.057566653892
 21
-328.42732940177
  0
LINE
  8
SUNPOUSEN
 62
     7
 10
795.835530463941
 20
-329.330329401771
 11
799.445066653892
 21
-329.330329401771
  0
INSERT
  8
SUNPOUSEN
 62
     7
  2
*X58
 10
0.0
 20
0.0
 30
0.0
  0
TEXT
  8
SUNPOUSEN
 62
     7
 10
219.726786410192
 20
-351.676370029457
 40
4.5
  1
戸袋注意シール
  0
LINE
  8
SUNPOUSEN
 62
     7
 10
264.983258182911
 20
-334.483747492262
 11
262.072088167974
 21
-330.865484767675
  0
CIRCLE
  8
SUNPOUSEN
 62
     7
 10
263.527673175443
 20
-332.674616129969
 40
2.322
  0
LINE
  8
SUNPOUSEN
 62
     7
 10
261.722905080467
 20
-329.330329401771
 11
265.332441270418
 21
-329.330329401771
  0
LINE
  8
SUNPOUSEN
 62
     7
 10
260.110405080468
 20
-328.42732940177
 11
266.944941270419
 21
-328.42732940177
  0
LINE
  8
SUNPOUSEN
 62
     7
 10
261.722905080467
 20
-336.018902858167
 11
265.332441270418
 21
-336.018902858167
  0
LINE
  8
SUNPOUSEN
 62
     7
 10
260.110405080467
 20
-336.921902858167
 11
266.944941270418
 21
-336.921902858167
  0
LINE
  8
SUNPOUSEN
 62
     7
 10
266.944941270419
 20
-328.42732940177
 11
266.944941270418
 21
-336.921902858167
  0
LINE
  8
SUNPOUSEN
 62
     7
 10
260.110405080468
 20
-328.42732940177
 11
260.110405080467
 21
-336.921902858167
  0
TEXT
  8
SAKUZU1
 10
900.129792368735
 20
-674.544117444027
 40
10.0
  1
3
  7
ＭＳゴシック
  0
TEXT
  8
HATCH
 10
755.191715821762
 20
-704.182941203409
 40
17.0
  1
SOLIC CORPORATION
 41
0.88
  7
ＭＳゴシック
  0
TEXT
  8
SAKUZU1
  6
CONTINUOUS
 62
     7
 10
295.365950421066
 20
-513.58798183567
 40
7.044975
  1
内　部
  0
TEXT
  8
SAKUZU1
  6
CONTINUOUS
 62
     7
 10
295.295282965536
 20
-460.366130304671
 40
7.044975
  1
外　部
  0
LINE
  8
SAKUZU1
 62
     7
 10
272.444941270418
 20
-377.584528280638
 11
391.270186270418
 21
-377.584528280638
  0
LINE
  8
SAKUZU1
 62
     7
 10
590.72568546394
 20
-377.584528280635
 11
689.62371546394
 21
-377.584528280635
  0
LINE
  8
SAKUZU1
 62
     7
 10
788.72303046394
 20
-377.588430299168
 11
689.82500046394
 21
-377.588430299168
  0
TEXT
  8
SAKUZU1
  6
CONTINUOUS
 10
459.910756169965
 20
-569.857020369762
 40
4.83084
  1
開口幅（Ｗ)の求め方
  0
TEXT
  8
SAKUZU1
  6
CONTINUOUS
 10
472.739000834084
 20
-588.041776734011
 40
4.83084
  1
(DW=W)
  0
INSERT
  8
SAKUZU1
  2
*X59
 10
0.0
 20
0.0
 30
0.0
  0
TEXT
  8
SAKUZU1
  6
CONTINUOUS
 10
452.986870140617
 20
-569.970233631654
 40
4.4
  1
4
  0
CIRCLE
  8
SAKUZU1
 10
454.378928363239
 20
-567.635948176536
 40
3.113208000000001
  0
INSERT
  8
SAKUZU1
  2
*X60
 10
0.0
 20
0.0
 30
0.0
  0
TEXT
  8
SAKUZU1
 10
457.912648877585
 20
-610.364877647279
 40
4.83084
  1
例) 扉幅寸法(DW)が900mm
 41
0.98
  0
TEXT
  8
SAKUZU1
 10
457.912648877585
 20
-626.467677647279
 40
4.83084
  1
　　   ＝900×2－100＋3
  0
TEXT
  8
SAKUZU1
  6
CONTINUOUS
 10
471.314504032318
 20
-626.874633064929
 40
4.83084
  1
W
  0
TEXT
  8
SAKUZU1
 10
457.912648877585
 20
-618.416277647279
 40
4.83084
  1
    の場合
 41
0.98
  0
TEXT
  8
SAKUZU1
 10
457.912648877585
 20
-634.519077647279
 40
4.83084
  1
　　   ＝1703
  0
TEXT
  8
SAKUZU1
 10
836.606808381635
 20
-587.971608819494
 40
4.83084
  1
　　　(DW＝W)
  0
TEXT
  8
SAKUZU1
 10
836.606808381635
 20
-609.016873354718
 40
4.83084
  1
例) 扉幅寸法(DW)が800mm
 41
0.98
  0
TEXT
  8
SAKUZU1
 10
836.606808381635
 20
-625.119673354718
 40
4.83084
  1
　　   ＝800×4－200＋3
  0
TEXT
  8
SAKUZU1
  6
CONTINUOUS
 10
850.008663536369
 20
-625.526628772367
 40
4.83084
  1
W
  0
TEXT
  8
SAKUZU1
 10
836.606808381635
 20
-617.068273354718
 40
4.83084
  1
    の場合
  0
TEXT
  8
SAKUZU1
 10
836.606808381635
 20
-633.171073354718
 40
4.83084
  1
　　   ＝3103
  0
TEXT
  8
SAKUZU1
 10
836.606808381635
 20
-568.759873354718
 40
4.83084
  1
開口幅(W)の求め方
 41
0.98
  0
TEXT
  8
SAKUZU1
 10
836.606808381635
 20
-579.610403608217
 40
4.83084
  1
　　＝DW×4－200＋3
  0
TEXT
  8
SAKUZU1
  6
CONTINUOUS
 10
840.25591475607
 20
-580.562569271689
 40
4.83084
  1
W
  0
CIRCLE
  8
SAKUZU1
 10
833.07308786729
 20
-566.287943883974
 40
3.113208000000001
  0
TEXT
  8
SAKUZU1
  6
CONTINUOUS
 10
831.525526902683
 20
-568.599270873298
 40
4.83084
  1
4
  0
LINE
  8
PT
 10
153.801451014105
 20
-146.424435843449
 11
153.801451014105
 21
-722.424435843449
  0
LINE
  8
PT
 10
153.801451014105
 20
-722.424435843449
 11
957.801451014105
 21
-722.424435843449
  0
POLYLINE
  8
PT
  6
CONTINUOUS
 66
     1
 70
     1
  0
VERTEX
  8
PT
  6
CONTINUOUS
 10
957.801451014105
 20
-146.424435843449
  0
VERTEX
  8
PT
  6
CONTINUOUS
 10
947.801451014105
 20
-146.424435843449
  0
VERTEX
  8
PT
  6
CONTINUOUS
 10
947.801451014105
 20
-156.424435843449
  0
VERTEX
  8
PT
  6
CONTINUOUS
 10
957.801451014105
 20
-156.424435843449
  0
SEQEND
  8
PT
  6
CONTINUOUS
  0
LINE
  8
PT
 10
957.801451014105
 20
-722.424435843449
 11
957.801451014105
 21
-146.424435843449
  0
POLYLINE
  8
PT
  6
CONTINUOUS
 66
     1
 70
     1
  0
VERTEX
  8
PT
  6
CONTINUOUS
 10
163.801451014105
 20
-712.424435843449
  0
VERTEX
  8
PT
  6
CONTINUOUS
 10
153.801451014105
 20
-712.424435843449
  0
VERTEX
  8
PT
  6
CONTINUOUS
 10
153.801451014105
 20
-722.424435843449
  0
VERTEX
  8
PT
  6
CONTINUOUS
 10
163.801451014105
 20
-722.424435843449
  0
SEQEND
  8
PT
  6
CONTINUOUS
  0
POLYLINE
  8
PT
  6
CONTINUOUS
 66
     1
 70
     1
  0
VERTEX
  8
PT
  6
CONTINUOUS
 10
153.801451014105
 20
-146.424435843449
  0
VERTEX
  8
PT
  6
CONTINUOUS
 10
163.801451014105
 20
-146.424435843449
  0
VERTEX
  8
PT
  6
CONTINUOUS
 10
163.801451014105
 20
-156.424435843449
  0
VERTEX
  8
PT
  6
CONTINUOUS
 10
153.801451014105
 20
-156.424435843449
  0
SEQEND
  8
PT
  6
CONTINUOUS
  0
LINE
  8
PT
 10
957.801451014105
 20
-146.424435843449
 11
153.801451014105
 21
-146.424435843449
  0
SOLID
  8
SUNPOUSEN
 62
     7
 10
219.439891270418
 20
-423.869303258278
 11
219.439891270418
 21
-425.546678258278
 12
214.407766270418
 22
-424.707990758278
 13
214.407766270418
 23
-424.707990758278
  0
SOLID
  8
SUNPOUSEN
 62
     7
 10
386.909011270418
 20
-423.869303258278
 11
386.909011270418
 21
-425.546678258278
 12
391.941136270418
 22
-424.707990758278
 13
391.941136270418
 23
-424.707990758278
  0
SOLID
  8
SUNPOUSEN
 62
     7
 10
887.529156865703
 20
-379.932853280636
 11
889.206531865703
 21
-379.932853280636
 12
888.367844365703
 22
-384.964978280636
 13
888.367844365703
 23
-384.964978280636
  0
SOLID
  8
SUNPOUSEN
 62
     7
 10
887.529156865702
 20
-209.910768333289
 11
889.206531865702
 21
-209.910768333289
 12
888.367844365702
 22
-204.878643333289
 13
888.367844365702
 23
-204.878643333289
  0
SOLID
  8
SUNPOUSEN
 62
     7
 10
829.31550546394
 20
-423.869303258277
 11
829.31550546394
 21
-425.546678258277
 12
834.34763046394
 22
-424.707990758277
 13
834.34763046394
 23
-424.707990758277
  0
SOLID
  8
SUNPOUSEN
 62
     7
 10
550.13321046394
 20
-423.869303258277
 11
550.13321046394
 21
-425.546678258277
 12
545.10108546394
 22
-424.707990758277
 13
545.10108546394
 23
-424.707990758277
  0
SOLID
  8
SUNPOUSEN
 62
     7
 10
463.262881614606
 20
-209.91076833329
 11
464.940256614606
 21
-209.91076833329
 12
464.101569114606
 22
-204.87864333329
 13
464.101569114606
 23
-204.87864333329
  0
SOLID
  8
SUNPOUSEN
 62
     7
 10
463.262881614606
 20
-379.932853280638
 11
464.940256614606
 21
-379.932853280638
 12
464.101569114606
 22
-384.964978280638
 13
464.101569114606
 23
-384.964978280638
  0
LINE
  8
SAKUZU1
 62
     7
 10
212.173727207918
 20
-384.964978280638
 11
212.173727207918
 21
-202.64460427079
  0
LINE
  8
SAKUZU1
 62
     7
 10
212.173727207918
 20
-202.64460427079
 11
393.973890332918
 21
-202.64460427079
  0
LINE
  8
SAKUZU1
 62
     7
 10
393.973890332918
 20
-384.964978280638
 11
393.973890332918
 21
-202.64460427079
  0
ARC
  8
SAKUZU1
 62
     7
 10
367.694879017909
 20
-237.155207005789
 40
0.35197337
 50
270.0
 51
0.0
  0
LINE
  8
SAKUZU1
 62
     7
 10
353.475154869909
 20
-237.507180375789
 11
367.694879017909
 21
-237.507180375789
  0
LINE
  8
SAKUZU1
 62
     7
 10
355.228900443908
 20
-237.159884380088
 11
365.941133443908
 21
-237.159884380088
  0
LINE
  8
SAKUZU1
 62
     7
 10
368.046852387908
 20
-237.155207005789
 11
368.046852387908
 21
-236.099286895789
  0
INSERT
  8
HATCH
 62
     7
  2
*U61
 10
0.0
 20
0.0
 30
0.0
  0
LINE
  8
SAKUZU1
 62
     7
 10
353.123181499909
 20
-236.821615754944
 11
368.046852387908
 21
-236.821615754944
  0
LINE
  8
SAKUZU1
 62
     7
 10
353.123181499909
 20
-237.155207005789
 11
353.123181499909
 21
-236.099286895789
  0
ARC
  8
SAKUZU1
 62
     7
 10
353.475154869909
 20
-233.283499935789
 40
0.35197337
 50
90.0
 51
180.0
  0
ARC
  8
SAKUZU1
 62
     7
 10
353.475154869909
 20
-237.155207005789
 40
0.35197337
 50
180.0
 51
270.0
  0
LINE
  8
SAKUZU1
 62
     7
 10
353.123181499909
 20
-236.099286895789
 11
353.123181499909
 21
-233.283499935789
  0
ARC
  8
SAKUZU1
 62
     7
 10
367.694879017909
 20
-233.283499935789
 40
0.35197337
 50
0.0
 51
90.0
  0
LINE
  8
SAKUZU1
 62
     7
 10
368.046852387908
 20
-236.099286895789
 11
368.046852387908
 21
-233.283499935789
  0
LINE
  8
SAKUZU1
 62
     7
 10
353.475154869909
 20
-232.931526565789
 11
367.694879017909
 21
-232.931526565789
  0
LINE
  8
SUNPOUSEN
 62
     7
 10
212.173727207918
 20
-387.382604304354
 11
212.173727207918
 21
-426.583990706358
  0
LINE
  8
SUNPOUSEN
 62
     7
 10
207.577989707918
 20
-424.707990758278
 11
203.365230332918
 21
-424.707990758278
  0
SOLID
  8
SUNPOUSEN
 62
     7
 10
207.577989707918
 20
-423.942034508278
 11
207.577989707918
 21
-425.473947008279
 12
212.173727207918
 22
-424.707990758278
 13
212.173727207918
 23
-424.707990758278
  0
LINE
  8
SUNPOUSEN
 62
     7
 10
212.173727207918
 20
-424.707990758278
 11
214.407766270418
 21
-424.707990758278
  0
LINE
  8
SUNPOUSEN
 62
     7
 10
398.770912832918
 20
-424.707990758278
 11
402.983672207918
 21
-424.707990758278
  0
SOLID
  8
SUNPOUSEN
 62
     7
 10
398.770912832918
 20
-423.942034508278
 11
398.770912832918
 21
-425.473947008279
 12
394.175175332917
 22
-424.707990758278
 13
394.175175332917
 23
-424.707990758278
  0
LINE
  8
SUNPOUSEN
 62
     7
 10
394.175175332917
 20
-387.382604304354
 11
394.175175332917
 21
-426.787935758278
  0
LINE
  8
SUNPOUSEN
 62
     7
 10
391.941136270418
 20
-424.707990758278
 11
394.175175332917
 21
-424.707990758278
  0
LINE
  8
SAKUZU1
 62
     7
 10
275.799691270418
 20
-204.87864333329
 11
275.799691270418
 21
-225.34261833329
  0
LINE
  8
SAKUZU1
 62
     7
 10
272.444941270418
 20
-204.87864333329
 11
272.444941270418
 21
-225.34261833329
  0
LINE
  8
SAKUZU1
 62
     7
 10
542.86704640144
 20
-202.647188836011
 11
836.58166952644
 21
-202.647188836011
  0
LINE
  8
SAKUZU1
 62
     7
 10
542.86704640144
 20
-384.967562845858
 11
542.86704640144
 21
-202.647188836011
  0
SOLID
  8
SUNPOUSEN
 62
     7
 10
463.303698020856
 20
-197.85737770829
 11
464.899440208356
 21
-197.85737770829
 12
464.101569114606
 22
-202.64460427079
 13
464.101569114606
 23
-202.64460427079
  0
LINE
  8
SUNPOUSEN
 62
     7
 10
464.101569114606
 20
-204.87864333329
 11
464.101569114606
 21
-194.175314895237
  0
LINE
  8
SUNPOUSEN
 62
     7
 10
396.268505444408
 20
-202.64460427079
 11
466.114419114606
 21
-202.64460427079
  0
LINE
  8
SAKUZU1
 62
     7
 10
836.58166952644
 20
-384.964978280638
 11
836.58166952644
 21
-202.64460427079
  0
LINE
  8
SAKUZU1
 62
     7
 10
697.432406104787
 20
-236.101871461009
 11
697.432406104787
 21
-233.286084501009
  0
LINE
  8
SAKUZU1
 62
     7
 10
682.508735216787
 20
-236.101871461009
 11
682.508735216787
 21
-233.286084501009
  0
ARC
  8
SAKUZU1
 62
     7
 10
682.860708586787
 20
-237.157791571009
 40
0.35197337
 50
180.0
 51
270.0
  0
LINE
  8
SAKUZU1
 62
     7
 10
682.508735216787
 20
-237.157791571009
 11
682.508735216787
 21
-236.101871461009
  0
LINE
  8
SAKUZU1
 62
     7
 10
682.508735216787
 20
-236.824200320165
 11
697.432406104787
 21
-236.824200320165
  0
INSERT
  8
HATCH
 62
     7
  2
*U62
 10
0.0
 20
0.0
 30
0.0
  0
LINE
  8
SAKUZU1
 62
     7
 10
697.432406104787
 20
-237.157791571009
 11
697.432406104787
 21
-236.101871461009
  0
LINE
  8
SAKUZU1
 62
     7
 10
684.614454160786
 20
-237.162468945309
 11
695.326687160786
 21
-237.162468945309
  0
LINE
  8
SAKUZU1
 62
     7
 10
682.860708586787
 20
-237.509764941009
 11
697.080432734787
 21
-237.509764941009
  0
ARC
  8
SAKUZU1
 62
     7
 10
697.080432734787
 20
-237.157791571009
 40
0.35197337
 50
270.0
 51
0.0
  0
LINE
  8
SAKUZU1
 62
     7
 10
682.860708586787
 20
-232.934111131009
 11
697.080432734787
 21
-232.934111131009
  0
ARC
  8
SAKUZU1
 62
     7
 10
697.080432734787
 20
-233.286084501009
 40
0.35197337
 50
0.0
 51
90.0
  0
ARC
  8
SAKUZU1
 62
     7
 10
682.860708586787
 20
-233.286084501009
 40
0.35197337
 50
90.0
 51
180.0
  0
LINE
  8
SUNPOUSEN
 62
     7
 10
888.367844365702
 20
-204.878643333289
 11
888.367844365702
 21
-194.175314895235
  0
SOLID
  8
SUNPOUSEN
 62
     7
 10
887.569973271952
 20
-197.857377708289
 11
889.165715459452
 21
-197.857377708289
 12
888.367844365702
 22
-202.644604270789
 13
888.367844365702
 23
-202.644604270789
  0
LINE
  8
SUNPOUSEN
 62
     7
 10
838.299478701471
 20
-202.644604270789
 11
890.380694365702
 21
-202.644604270789
  0
SOLID
  8
SUNPOUSEN
 62
     7
 10
538.27130890144
 20
-423.942034508277
 11
538.27130890144
 21
-425.473947008277
 12
542.86704640144
 22
-424.707990758277
 13
542.86704640144
 23
-424.707990758277
  0
LINE
  8
SUNPOUSEN
 62
     7
 10
538.27130890144
 20
-424.707990758277
 11
534.05854952644
 21
-424.707990758277
  0
LINE
  8
SUNPOUSEN
 62
     7
 10
545.10108546394
 20
-424.541440706356
 11
545.10108546394
 21
-424.520943637647
  0
LINE
  8
SUNPOUSEN
 62
     7
 10
542.86704640144
 20
-424.707990758277
 11
545.10108546394
 21
-424.707990758277
  0
LINE
  8
SUNPOUSEN
 62
     7
 10
542.86704640144
 20
-387.382604304354
 11
542.86704640144
 21
-426.983302009532
  0
LINE
  8
SUNPOUSEN
 62
     7
 10
343.733901885279
 20
-220.830503814332
 11
387.869775453617
 21
-220.830503814332
  0
TEXT
  8
SUNPOUSEN
  6
CONTINUOUS
 62
     7
 10
346.896204529008
 20
-218.967991779872
 40
5.0
  1
無目付センサー
  0
LINE
  8
SUNPOUSEN
 62
     7
 10
356.291611600312
 20
-229.339579389892
 11
343.733901885279
 21
-220.830503814332
  0
SOLID
  8
SUNPOUSEN
 62
     7
 10
356.925796853473
 20
-228.408525528153
 11
360.585016943909
 21
-232.931526565789
 12
355.656673278588
 22
-229.839786154112
 13
355.656673278588
 23
-229.839786154112
  0
LINE
  8
SUNPOUSEN
 62
     7
 10
698.039415360734
 20
-220.774788848628
 11
742.937476597111
 21
-220.774788848628
  0
TEXT
  8
SUNPOUSEN
  6
CONTINUOUS
 62
     7
 10
701.384851154804
 20
-218.912276814168
 40
5.0
  1
無目付センサー
  0
LINE
  8
SUNPOUSEN
 62
     7
 10
694.045053160944
 20
-227.831686702161
 11
698.039415360734
 21
-220.774788848628
  0
SOLID
  8
SUNPOUSEN
 62
     7
 10
694.877415261216
 20
-228.30282228877
 11
691.218239641292
 21
-232.825859303791
 12
693.212691060673
 22
-227.360551115552
 13
693.212691060673
 23
-227.360551115552
  0
INSERT
  8
説明文
  2
*X63
 10
0.0
 20
0.0
 30
0.0
  0
TEXT
  8
SAKUZU1
  6
CONTINUOUS
 10
379.377158744666
 20
-594.686363496065
 40
4.83084
  1
(DW＝FIX)
  0
LINE
  8
SUNPOUSEN
  6
PHANTOM
 62
     7
 10
402.919858217701
 20
-248.701425264871
 11
402.919858217701
 21
-290.588593161514
  0
LINE
  8
HASEN
 62
     7
 10
402.919858217701
 20
-338.089827758734
 11
402.919858217701
 21
-366.241141567929
  0
LINE
  8
SUNPOUSEN
  6
PHANTOM
 62
     7
 10
533.921078516658
 20
-248.701425264871
 11
533.921078516658
 21
-290.588593161514
  0
LINE
  8
HASEN
 62
     7
 10
533.921078516658
 20
-338.089827758734
 11
533.921078516658
 21
-366.241141567929
  0
LINE
  8
SAKUZU2
 62
     7
 10
243.960098966077
 20
-210.810083947614
 11
240.075253985921
 21
-221.242806856443
  0
LINE
  8
SAKUZU2
 62
     7
 10
248.215107044057
 20
-207.439768891855
 11
241.955522585374
 21
-224.249837379899
  0
LINE
  8
SAKUZU2
 62
     7
 10
327.441612058942
 20
-208.087050509545
 11
321.423056597693
 21
-224.249837379899
  0
LINE
  8
SAKUZU2
 62
     7
 10
329.427632978396
 20
-210.810083947614
 11
325.54278799824
 21
-221.242806856443
  0
LINE
  8
SAKUZU2
 62
     7
 10
333.682641056376
 20
-207.439768891855
 11
327.423056597693
 21
-224.249837379899
  0
LINE
  8
SAKUZU2
 62
     7
 10
248.076656940136
 20
-294.65615625214
 11
243.920191454458
 21
-304.65615625214
  0
LINE
  8
SAKUZU2
 62
     7
 10
257.205732805097
 20
-279.910272072228
 11
238.685367790861
 21
-324.468238637937
  0
LINE
  8
SAKUZU2
 62
     7
 10
569.855786946946
 20
-208.087050509545
 11
563.837231485698
 21
-224.249837379899
  0
LINE
  8
SAKUZU2
 62
     7
 10
571.841807866401
 20
-210.810083947614
 11
567.956962886245
 21
-221.242806856443
  0
LINE
  8
SAKUZU2
 62
     7
 10
576.096815944381
 20
-207.439768891855
 11
569.837231485698
 21
-224.249837379899
  0
LINE
  8
SAKUZU2
 62
     7
 10
637.230992137649
 20
-208.087050509545
 11
631.212436676401
 21
-224.249837379899
  0
LINE
  8
SAKUZU2
 62
     7
 10
639.217013057104
 20
-210.810083947614
 11
635.332168076948
 21
-221.242806856443
  0
LINE
  8
SAKUZU2
 62
     7
 10
643.472021135084
 20
-207.439768891855
 11
637.212436676401
 21
-224.249837379899
  0
LINE
  8
SAKUZU2
 62
     7
 10
750.735657469719
 20
-208.087050509545
 11
744.717102008471
 21
-224.249837379899
  0
LINE
  8
SAKUZU2
 62
     7
 10
752.721678389174
 20
-210.810083947614
 11
748.836833409018
 21
-221.242806856443
  0
LINE
  8
SAKUZU2
 62
     7
 10
756.976686467154
 20
-207.439768891855
 11
750.717102008471
 21
-224.249837379899
  0
LINE
  8
SAKUZU2
 62
     7
 10
808.070065342585
 20
-208.087050509545
 11
802.051509881337
 21
-224.249837379899
  0
LINE
  8
SAKUZU2
 62
     7
 10
810.05608626204
 20
-210.810083947614
 11
806.171241281884
 21
-221.242806856443
  0
LINE
  8
SAKUZU2
 62
     7
 10
814.31109434002
 20
-207.439768891855
 11
808.051509881337
 21
-224.249837379899
  0
LINE
  8
SAKUZU2
 62
     7
 10
569.981204189759
 20
-285.997277473423
 11
558.959228036706
 21
-312.514943002061
  0
LINE
  8
SAKUZU2
 62
     7
 10
569.382171110919
 20
-294.65615625214
 11
565.225705625241
 21
-304.65615625214
  0
LINE
  8
SAKUZU2
 62
     7
 10
578.51124697588
 20
-279.910272072228
 11
559.990881961644
 21
-324.468238637937
  0
LINE
  8
SAKUZU2
 62
     7
 10
813.655882428484
 20
-285.997277473423
 11
802.633906275431
 21
-312.514943002061
  0
LINE
  8
SAKUZU2
 62
     7
 10
813.056849349644
 20
-294.65615625214
 11
808.900383863966
 21
-304.65615625214
  0
LINE
  8
SAKUZU2
 62
     7
 10
822.185925214605
 20
-279.910272072228
 11
803.665560200369
 21
-324.468238637937
  0
ENDSEC
  0
EOF
